Guitar Tabs, Chords and Lyrics


Please Bleed   Ben Harper


Please Bleed - Ben Harper


accordage 1 ton plus bas

intro & couplet:

riff principal (couplet)

|-----------------------|-------------------------||
|-----------------------|-------------------------||
|-----------------------|-------------------------||   
|-----------------------|--------------2-2^4^2----|| 
|------7--5-------5--4--|-----4--3----------------|| 
|--0----------3---------|--5--------0-------------|| 

transition avant le refrain
|-----------------------|--------------------------|
|-----------------------|--------------------------|
|-----------------------|--------------------------|   
|-----------------------|--------------------------| 
|------7--5-------5--4--|--0-----------------------| 
|--0----------3---------|--------------------------| 

Refrain Em C D et Am
|--------------0----------|---0--------0-------------|
|--------------0----------|---1--------1-------------|
|--------------0----------|---0--------0------------.|
|--2----------------------|---2--------2------------.|
|--2----------------------|---3--------3-------------|
|--0----------------------|--------------------------|

|---2--------3---2--------|--------------------------|
|---3--------3---3--------|---1----------1-1---------|
|---2--------2---2--------|---2----------2-2---------|
|---0--------0---0--------|---2----------2-2--0------|
|-------------------------|---0----------0-0--2------|
|-------------------------|--------------------------|

|-------------------------|--------------------------|
|----1-----------1--------|---1----------1-1---------|
|----0-----------0--------|---2----------2-2---------|
|----2-----------2--------|---2----------2-2---0-----|
|----3-----------3--------|---0----------0-0---2-----|
|-------------------------|--------------------------|

|--------------------------|-------------------------|
|---1---------1------------|---1---------1-----------|
|---0---------2------------|---0---------2-----------|
|---2---------2------------|---2---------2-----------|
|---3---------0------------|---3---------0-----------|
|--------------------------|-------------------------|

|--------------------------|---2----------3--2-------|
|----1----------1----------|---3----------3--3-------|
|----0----------0----------|---2----------2--2-------|
|----2----------2----------|---0----------0--0-------|
|----3----------3----------|-------------------------|
|--------------------------|-------------------------|




Important: The song above is NOT stored on the Chordie server. The original song is hosted at flarere.free.fr. Chordie works as a search engine and provides on-the-fly formatting. Chordie does not index songs against artists/composers will. To remove this song please click here.

This song is displayed as text-only. Transposing and tuning is only available for chordpro-songs.

Login - add to songbook

Rating click stars to rate

Layout
Accuracy

SHARE PAGE  




You need to log in to post comments