""; ?> Sexual healing by Ben Harper - guitar chords, guitar tabs and lyrics - chordie

Sexual healing

Ben Harper

d||---------------------------------------------||
A||---333----111---00---111---------------------||
F||---000----222---00---222---------------------||
C||---000----222---22---333----------0h2-2------||
G||--------0-----------------3----0h3------h3---||
D||-3------------0----1-------------------------||

 dududududud
                            Verse to Chorus: (the last riff of the verse)
================
G Am C (Chorus)
d|-----------------------------------------------|------|
A|---333----111(x-x)-----------------------------|------|
F|---000----222(x-x)-----------------------------|------|
C|---000----222(x-x)-----------------------------|------|
G|--------0--------------5--------7------8----10-|3-----|
D|-3---------------------------------------------|------|

Sexual healing is something thats good for me
note: the x between () are not played but sound good on an acoustic guitar solo.
=====
Chorus:
=======
 CEmF
d||--------------------------------------------------------------||
A||---1-1--11--------0-000-0----0------1--1--11-1----------------||
F||---0-0--00--------0-000-0----0------2--2--22-2----------------||
C||---2-2--22--0h2---2-222-2----2------3--3--33-3----------------||
G||-3----3------------------------------------------5---7--8--10-||
D||---------------0----------0-----0-1-----1-----1---------------||

 dudududuudduduu
                                       Lyrics:
========
Ooh, baby let's get down tonight
Baby I'm hot just like an oven
I need some lovin'
And baby, I can't hold it much longer
It's getting stronger and stronger
And when I get that feeling
I want Sexual Healing
Sexual Healing, oh baby
Makes me feel so fine
Helps to relieve my mind
Sexual Healing baby, is good for me
Sexual Healing is something that's good for me
Whenever blue tear drops are falling
And my emotional stability is leaving me
There is something I can do
I can get on the telephone and call you up baby, and
Honey I know you'll be there to relieve me
The love you give to me will free me
If you don't know the things you're dealing
I can tell you, darling, that it's Sexual Healing
Get up, Get up, Get up, Get up, let's make love tonight
Wake up, Wake up, Wake up, Wake up, 'cos you do it right
Baby I got sick this morning
A sea was storming inside of me
Baby I think I'm capsizing
The waves are rising and rising
And when I get that feeling
I want Sexual Healing
Sexual Healing is good for me
Makes me feel so fine, it's such a rush
Helps to relieve the mind, and it's good for us
Sexual Healing, baby, is good for me
Sexual Healing is something that's good for me
And it's good for me and it's good to me
My baby ohhh
Come take control, just grab a hold
Of my body and mind soon we'll be making it
Honey, oh we're feeling fine
You're my medicine open up and let me in
Darling, you're so great
I can't wait for you to operate
I can't wait for you to operate
When I get this feeling, I need Sexual Healing
...


C Em F
variations - click chord images
Transpose chords:
Tuning:
Cool service:
View: Size:
A  A  A
Rating:
Layout:
  • Currently 3.1/5 Stars.
  • 1
  • 2
  • 3
  • 4
  • 5
 
Accuracy:
  • Currently 2.7/5 Stars.
  • 1
  • 2
  • 3
  • 4
  • 5
 
click stars to rate
Chordie recommends:
Check out these online guitar lessons
Songbook:
Login to add this song to your songbook
Support the artist
Preview/buy this song
MSN Music
Why this non-profit ad?

 
login to add comments/video/corrections