Woman in you

Ben Harper

 A
-------2----------------------------------------------
-------3-----------------------------------------10-8-
-------4-------6---6h7p6---------------7---7h9---7----
-------4-----7---7-------7---5s7---7h9-7-9-7---9-9----
-0h2-2-2---7---------------5-5s7-----------------7----
---------5-----------------------0--------------------

p p
 B
-------2---------------------------------------------
-------3-----------------------------------------8-8-
-------4-------6---6h7p6---------------7---7h9---7---
-------4-----7---7-------7---5s7---7h9-7-9-7---9-9---
-0h2-2-2---7---------------5-5s7-----------------7---
---------5-----------------------0-------------------

p p
 C
-----------------0---------3-----5-
-------3---------0---------3-----5-
-------4---------1---------4-----6-
-------4-0h2p0---2---------5-----7-
-0h2-2-2---------2---------5-----7-
---------------0-0-0-2-3-3-3-3s5-5-

p p p p
 D
-2-2-2-----------0---------3-----5-
-3-3-2h3---------0---------3-----5-
-4-4-2h4---------1---------4-----6-
-4-4-2h4-0h2p0---2---------5-----7-
-2-2-2-----------2---------5-----7-
---------------0-0-0-2-3-3-3-3s5-5-

p p p p p p
 E
------
------
------
------
------

-12s0-
 F
-0-0-0-3-3-x-5-5-5-0-
-0-0-0-3-3-x-5-5-5-0-
-1-1-1-4-4-x-6-6-6-0-
-2-2-2-5-5-x-7-7-7-0-
-2-2-2-5-5-x-7-7-7-0-
-0-0-0-3-3-x-5-5-5-0-

p p p p r p r r p r
 G
-0-0-0-3s5-5-5-5-5-5-0-
-0-0-0-3s5-5-5-5-5-5-0-
-1-1-1-4s6-6-6-6-6-6-0-
-2-2-2-5s7-7-7-7-7-7-0-
-2-2-2-5s7-7-7-7-7-7-0-
-0-0-0-3s5-5-5-5-5-5-0-

p p p p r p r r p r
Intro : A
 A
 Could've sworn I heard you say amen this morning,
 B
 showing some kind of sign that you believe
 A
 Did it fall from your tongue without warning
 B
 or just another trick to fall from your sleeve
 A
 Did I hear you say that you believe in angels?
 B
 I guess I bring the devil out in you
 A
 But we can both remove our halos
 B
 'cause even an angel needs love too
 A
 'cause even an angel needs love too
 C
 The woman in you is the worry, the worry in me
 D
 The woman in you is the worry, the worry in me
 A
 Some things never change;
 B
 Some things never stay the same
 A
 But your so innocent,
 B
 I'll take all the blame
 A
 How I hate to remember
 B
 for that means the day is past
 A
 Sometimes I wonder if I know her
 B
 or if I really need to ask
 A
 or if I really need to ask
 C
 The woman in you is the worry, the worry in me
 D
 The woman in you is the worry, the worry in me
 D
 The woman in you is the worry, the worry in me
 E
F-G-F-G-F-G-F-G-

Woman...
 A
 Half-man walks with no shadow
 B
 of life he utters his distaste
 A
 No apology is expected
 B
 Love carved sorry in his face
 A
 Love carved sorry in his face
 C
 The woman in you is the worry, the worry in me
 D
 The woman in you is the worry, the worry in me
 D
 The woman in you, in you, is the worry in me
 E
 F-G (ad libitum on finit par un mi)
Woman...
superbe morceau de ben harper accordage en E


A B C D E F G
variations - click chord images
Transpose chords:
Tuning:
Cool service:
View: Size:
A  A  A
Rating:
Layout:
  • Currently 2.1/5 Stars.
  • 1
  • 2
  • 3
  • 4
  • 5
 
Accuracy:
  • Currently 2.7/5 Stars.
  • 1
  • 2
  • 3
  • 4
  • 5
 
click stars to rate
Chordie recommends:
Learn how to play guitar at JamPlay.com
Songbook:
Login to add this song to your songbook
Support the artist
Preview/buy this song
MSN Music
Why this non-profit ad?

 
login to add comments/video/corrections