Two hands of a praye

Ben Harper

 EmBm
E|-----------------------2-2-2---2----||
B|--------------0^1-0----3-3-2^3-2----||
G|------0-0-0-0-0---0----4-4-4---4----||
D|------2-2-2-2-2---2----4-4-4---4----||  (x 3 fois)
A|-2----2-2-2-2-2------0-2-2-2---2----||
E|---0--0-0-0-0-0---------------------||

^ v ^ v ^ ^ ^ ^ ^ ^
E|--------------------------------------------||
B|-----------1-1-1^3-1---------------0^1-0----||
G|-----------2-2-2---2-------------0-0---0----||
D|-----------2-2-2---2-------------2-2---2----||
A|-2-2-2/3-0-0-0-0---0--0-0-0^2----2-2---2----||
E|------------------------------0--0-0---0----||

^ v ^ ^ ^ ^ ^
 EmBmEmBm
 First time that I saw her she had white doves in her eyes
 EmBmAmEm
She spoke to me but I could not reply, not reply
 EmBmEmBm
 She was a stranger I had known for years
 EmBmAmEm
She brought to me so many smiles and tears, smiles and tears
transition avant le refrain: Em C Bm/A Am
E|-------------------------------||
B|------------1-----3-3----1-----||
G|--0-0-0-----0-----4-4----2-----||
D|--2-2-2-----2-----4-4----2-----||  (x 3 fois)
A|--2-2-2-----3--3--0-0--0--0----||
E|--0-0-0--0---------------------||

^ v ^
refrain :
 EmDC
e|--------0-----2---0------|
B|--------0-----3---1------|
G|--------0-----2---0------|
D|-2-2-2--2-----0---2------|
A|-2-2-2--2---------3------|
E|-0-0-0--0----------------|

The two...
 CG6DDsus4DDsus2DDsus2
e|--0--------------2-------3-3-3----2-2-2-----0-0-0---2-2-2--0---||
B|--1---0-----0----3-------3-3-3----3-3-3-----3-3-3---3-3-3--3---||
G|--0---0-----0----2-------2-2-2----2-2-2-----2-2-2---2-2-2--2---||
D|--2---0-----0----0---------------------------------------------||
A|--3---2-----2--------------------------------------------------||
E|------3-----3--------------------------------------------------||
   Two  hands of a prayer  toge-----ther like the two ha-a--a----
   and  o-----of a prayer  toge-----ther like the two ha-a--a----
   and  o-----of a prayer  toge-----ther like the two ha-a--a----
   and  o-----of a prayer  

 DCG6D
 The two hands of a prayer
 Dsus4DDsus2DDsus2CG6D
Toge-----ther like the two   ha-a-----ands of a prayer

 Dsus4DDsus2DDsus2CG6D
Toge-----ther like the two    ha-a------ands of a prayer 

 Dsus4DDsus2DDsus2CG6DDsus4DDsus2DDsus4DDsus2D
Toge-----ther like the two   ha-a-----ands of a prayer

 Em
e|----------------------------------------|
B|----------------------------------------|
G|-2h4p2-0--0h2p0-------------------------|
D|-----------------------5h7-5------------|
A|----------------3--5h7-------------7----|
E|-------------------------------------0--|

couplet:
Tired maid slowly drifts into the past, into the past
And finds a home where echoes rest,echoes rest
She softly kissed my mind, and whispered what will we do with time, do with time
refrain:
The two hands of a prayer
Together like the two hands of a prayer
Together like the two hands of a prayer
Together like the two hands of a prayer
(bridge: transition avant le refrain)
couplet:
Another man I choosed to be, choosed to be,
Or just the man I used to be, used to be
Another man I want to be, I want to be
And this question, it keeps haunting me, haunting me
refrain:
The two hands of a prayer
Together like the two hands of a prayer
Together like the two hands of a prayer
Together like the two hands of a prayer
outro: transition avant le refrain


Am Bm C D Dsus2 Dsus4 Em G6
variations - click chord images
Transpose chords:
Tuning:
Cool service:
View: Size:
A  A  A
Rating:
Layout:
  • Currently 3.1/5 Stars.
  • 1
  • 2
  • 3
  • 4
  • 5
 
Accuracy:
  • Currently 2.8/5 Stars.
  • 1
  • 2
  • 3
  • 4
  • 5
 
click stars to rate
Chordie recommends:
Learn to play guitar with video-based, online guitar lessons at JamPlay.com
Songbook:
Login to add this song to your songbook
Support the artist
Preview/buy this song
MSN Music
Why this non-profit ad?

 
login to add comments/video/corrections