Chordie logo


Breakin' Down  Ben Harper

||---/2---/2-/2--|--0---0--0--|--/7---/7-/7---|--/7---/7-/7---||


||---/2---/2-/2--|--0---0--0--|--/7---/7-/7---|--/7---/7-/7---||


||-.-/2---/2-/2--|--0---0--0--|--/7---/7-/7---|--/7---/7-/7-.-||


||-.-/2---/2-/2--|--0---0--0--|--/7---/7-/7---|--/7---/7-/7-.-||


||---/2---/2-/2--|--0---0--0--|--/7---/7-/7---|--/7---/7-/7---||


||---/2---/2-/2--|--0---0--0--|--/7---/7-/7---|--/7---/7-/7---||


||---/4---/4--/4--|--/2---/2--/2--|--0----0--0--|--0----0--0---||


||---/4---/4--/4--|--/2---/2--/2--|--0----0--0--|--0----0--0---||


||-.-/4---/4--/4--|--/2---/2--/2--|--0----0--0--|--0----0--0-.-||


||-.-/4---/4--/4--|--/2---/2--/2--|--0----0--0--|--0----0--0-.-||


||---/4---/4--/4--|--/2---/2--/2--|--0----0--0--|--0----0--0---||


||---/4---/4--/4--|--/2---/2--/2--|--0----0--0--|--0----0--0---||

[D]Yo[C]u [G]don't believe, that I love you
[D]an[C]d [G]even if that were true,
[D]wh[C]y [G]just to keep our little happy home,
[D]I'[C]m [G]gonna try to pretend that I do.
I'm breakin down.......D C G .......
Bridge
e- D C
ohhh.... One day you said it was just right,
e- D C
I don't see how things changed over night.
e- D C
ohhh.... One day you said it was so strong,
e- D C
and the next day you turned to me and said it's been wrong
[G]all along.
Verses........to end

Important: The song above is NOT stored on the Chordie server. The original song is hosted at flarere.free.fr. Chordie works as a search engine and provides on-the-fly formatting. Chordie does not index songs against artists/composers will. To remove this song please click here.

Text color:
Chord color:
Chord grids: 
Font size:    
Page size: 

C D G
variations - click chord images

Login - add to songbook

Transpose chords

Tuning

Rating click stars to rate

Layout
Accuracy

SHARE PAGE  




You need to log in to post comments