Guitar Tabs, Chords and Lyrics


i shall not walk alo   Ben Harper


Ben Harper : I Shall Not Walk Alone
Tuning: D G C F A D  Rythm: 3/8
Intro:
 |   |   |    |   |   |    |   |   |    |   |   |    |   |   |    |   |   |    
|------------|------------|------------|------------|------------|------------|
|------------|------------|------------|------------|------------|------------|
|------------|------------|------------|------------|------------|------------|
|--------9h11|9h119-------|------------|------------|------------|--------9---|
|--9h11------|0-----------|9~p-7/9h11--|11~---9h7---|7~----------|----9h11----|
|------------|------------|7~----------|9~----------|5~----------|------------|
 |   |   |    |   |   |    |   |   |     
|------------|------------|------------|
|------------|------------|------------|
|------------|------------|------------|
|9h119-------|------------|------------|
|0-----------|9-------7---|7-----------|
|------------|7-----------|0-----------|
Verse:
 |   |   |    |   |   |    |   |   |    |   |   |    |   |   |    |   |   |    
|------------||------------|------------|------------|------------|------------|
|------------||------------|------------|------------|------------|------------|
|------------||°-----------|------------|------------|------------|------------|
|--------9---||°-----------|----------9-|9h119---9---|9---6-------|--------9---|
|----9h11----||-9h11-------|------9h11--|0-----------|------------|----9h11----|
|------------||-0----------|------------|------------|0b----------|------------|
 |   |   |    |   |   |    |   |   |    |   |   |    |   |   |    |   |   |    
|------------|------------|------------|------------|------------|-----------||
|------------|------------|------------|------------|------------|-----------||
|------------|------------|------------|------------|------------|----------°||
|------------|--------9---|9h119---11--|------------|--------9---|9h119-----°||
|9h11--------|----9h11----|0-----------|9h1p/-------|----9h11----|0----------||
|0-----------|------------|------------|0-----------|------------|-----------||
 |   |   |    |   |   |    |   |   |    |   |   |   
|------------|------------|------------|------------|
|------------|------------|------------|------------|
|------------|------------|------------|------------|
|------------|------------|------------|------------|
|9---7/9h11--|11----9/7---|7-----------|------------|
|7-----------|9-----------|0-----------|------------|


Important: The song above is NOT stored on the Chordie server. The original song is hosted at flarere.free.fr. Chordie works as a search engine and provides on-the-fly formatting. Chordie does not index songs against artists/composers will. To remove this song please click here.

This song is displayed as text-only. Transposing and tuning is only available for chordpro-songs.

Login - add to songbook

Rating click stars to rate

Layout
Accuracy

SHARE PAGE  




You need to log in to post comments