Chordie logo

The Three Of Us    Ben Harper


Ben Harper : THE THREE OF US
                               [1.                            ]
|--------1-0------------------|-------1-0----------------------||
|---------------------3-----1-|-------------------3-1------1---||
|-------------------3---------|-----------------3-----2-3-----.||
|-----------------3-------3---|-----3---------3---------------.||
|-----3---------1-------------|---3---------1------------------||
|--1--------------------1-----|-1--------------------------1---||

[2.                                                    ]
|--------1-0--------------------------------------------||
|-------------------3--1------------------------1--1----||
|-----------------3-------3p2h3----2--0------2----------||
|---------------3---------------3----------3------------||
|-----3-------1--------------------------3--------------||
|--1-------------------1--------1-----0----1----0--1----||



Important: The song above is NOT stored on the Chordie server. The original song is hosted at flarere.free.fr. Chordie works as a search engine and provides on-the-fly formatting. Chordie does not index songs against artists/composers will. To remove this song please click here.

This song is displayed as text-only. Transposing and tuning is only available for chordpro-songs.

Login - add to songbook

Rating click stars to rate

Layout
Accuracy

SHARE PAGE  

You need to log in to post comments