Lull

Radiohead

E ||-3--1---|-0--2---:|| 5x's

B ||--3--3-3|--3--3-3:||

G ||0--0--0-|0--0--0-:||

D ||--------|--------:||

A ||--------|--------:||

E ||--------|--------:||

E ||-3--1---|-0--2---|--------|--------|| Repeat first riff

B ||--3--3-3|--3--3-0|--1--1--|1--1----||

G ||0--0--0-|0--0--0-|-0--0--0|--0-----||

D ||--------|--------|3--2--0-|--------||

A ||--------|--------|--------|-3--320-||

E ||--------|--------|--------|--------||

E ||-------3|-------3|------0-|-------3||

B ||--3---3-|--3---3-|--3----3|--3---3-||

G ||-0---0--|-0---0--|-0---0--|-0---0--||

D ||----0---|----0---|----0---|----0---||

A ||2--3----|--------|2--3----|--------||

E ||--------|2--3----|--------|2--3----||

E ||-------3|--------|---3---3|--------||

B ||--3---3-|--3--3--|--3---3-|--3-----||

G ||-0---0--|-0--0---|-0---0--|-0------||

D ||----0---|--------|--------|--------||

A ||2--3----|--------|----3---|--------||

E ||--------|2--3--32|0-------|2--3----||

E ||-------3|-------3|-------3|-------3||

B ||--3---3-|--3---3-|--3---3-|--3---3-||

G ||-0---0--|-0---0--|-0---0--|-0---0--||

D ||----0---|----0---|----0---|----0---||

A ||2--3----|--------|2--3----|--------||

E ||--------|2--3----|--------|2--3----||

E ||--0---0-|--------|---3---3|--------||

B ||---3---3|--3--3--|--3---3-|--3-----||

G ||-0---0--|-0--0---|-0---0--|-0------||

D ||--------|--------|--------|--------||

A ||2---3---|--------|----3---|--------||

E ||--------|2--3--32|0-------|2--3----||


 ---
     capo: 5
e---3-----1--------0-----2------
b-----3-----3--3-----3-----3----
g-0-----0----0---0-----0-----0--
d-------------------------------
b-------------------------------
e-------------------------------







































variations - click chord images
Transpose chords:
Tuning:
Cool service:
View: Size:
A  A  A
Rating:
Layout:
  • Currently 0/5 Stars.
  • 1
  • 2
  • 3
  • 4
  • 5
 
Accuracy:
  • Currently 0/5 Stars.
  • 1
  • 2
  • 3
  • 4
  • 5
 
click stars to rate
Chordie recommends:
Get acoustic guitar lessons and electric guitar lessons at JamPlay.com
Songbook:
Login to add this song to your songbook
Support the artist
Preview/buy this song
MSN Music
Why this non-profit ad?

 
login to add comments/video/corrections