""; ?> Pearly by Radiohead - guitar chords, guitar tabs and lyrics - chordie

Pearly

Radiohead

D---------------3-2-0--------------

A--0---------0--------3-0-----RPT--

E----------------------------------


 AmCE
e-------0-------------0--------------0--------------0-------------
B---------1-------------1--------------0--------------0-----------
G-----------2-------------0--------------1--------------1---------
D----2--------2----2--------2--------------2--------------2-------
A-0-------------3-----------------2--------------2----------------
E------------------------------0--------------0-------------------
e--------12--12---12------12--12--12-----12--12--12--------
B-----15---15--15----13-15--15--15--12-15--15--15----------   etc.
G--14------------------------------------------------------repeat and
D----------------------------------------------------------[fade out].
A----------------------------------------------------------
E----------------------------------------------------------

Additions :
Verse : Am, E, Em, Dsus2
Chorus: F, C, E, Esus





































Am C E
variations - click chord images
Transpose chords:
Tuning:
Cool service:
View: Size:
A  A  A
Rating:
Layout:
  • Currently 2.3/5 Stars.
  • 1
  • 2
  • 3
  • 4
  • 5
 
Accuracy:
  • Currently 3.6/5 Stars.
  • 1
  • 2
  • 3
  • 4
  • 5
 
click stars to rate
Chordie recommends:
Learn to play guitar with video-based, online guitar lessons at JamPlay.com
Songbook:
Login to add this song to your songbook
Support the artist
Preview/buy this song
MSN Music
Why this non-profit ad?

 
login to add comments/video/corrections