Chordie logo

Punchdrunk lovesick singalong  Radiohead

[Fm]C       [133111]032010
G 320033
Ab5 466xxx
Em 022000
G5 355XXX
Intro riff:
(play with high chorus and reverb for the full effect)
e ----------------------15--13---------
B -------13--13--13------------14--13--
G --13---------------------------------
D ------------------------------------- x2
A -------------------------------------
E -------------------------------------
e ----------------------14--12--------
B ------12--12--12------------13--12--
G --12--------------------------------
D ------------------------------------ x2
A ------------------------------------
E ------------------------------------
e ------------------------------
B --8^---10^---12^---14^---15~--
G ------------------------------
D ------------------------------
A ------------------------------
E ------------------------------

(Intro: Fm Em)
[Fm]I wrapped you inside my [Em]coat
[Fm]When they came to fire[C]bomb the house
[Fm]I didn't feel a thing, [Ab5]cause no one can touch me
[Fm]Now that I'm under your spell
e -----------------------------------------------
B --11b-11b-9----9----11--9---9-11 9 11-11b(12)--
G ------------10---10----------------------------
D -----------------------------------------------
A -----------------------------------------------
E -----------------------------------------------

[G]A beautiful girl, a beautiful girl
Can turn your wo[C]rld into dust
[Fm]Sell me a car that [Em]starts
[Fm]Sell me a house that [C]stands
[Fm]I never cared before, [Ab5]I never cared before, [Fm]I never cared [Em]before
[Fm]before, before[Em]
[Fm]before[Em]
[G]A beautiful girl, a beautiful girl
Can turn your wo[C]rld into dust
[G]A beautiful girl, a beautiful girl
Can turn your wo[C]rld into dust
(Solo - based around 2nd,3rd,5th frets of E,A,D strings)
[Fm]I stood in front of her [Em]face
[Fm]When the first bullet [C]was shot

Important: The song above is NOT stored on the Chordie server. The original song is hosted at flarere.free.fr. Chordie works as a search engine and provides on-the-fly formatting. Chordie does not index songs against artists/composers will. To remove this song please click here.

Ab5 C Em Fm G
variations - click chord images

Login - add to songbook

Transpose chords

Tuning

Rating click stars to rate

Layout
Accuracy

SHARE PAGE  

You need to log in to post comments