Guitar Tabs, Chords and Lyrics


Song 2   Various Artists


Song: Song 2
Band: Blur
Album: Blur (1997)
Tabbed by: Scott Etchegary (setchegary@hotmail.com)



Intro/Verse/Outro (Main Riff)
e:--------------------------------------------------|
B:--------------------------------------------------| Repeat as necessary
G:-------------------------------------17-17-17-17--|   
D:-------------------------13-13-15-17-17-17-17-17--|
A:--15-15-x-x-13-13-13-x-x-11-11-13-15-15-15-15-15--|
E:--13-13-x-x-11-11-11-x-x--------------------------|

Chorus
e:--------------------------------------------------|
B:--------------------------------------------------|
G:-------------------------------------17-17-17-17--|  Play 3 times
D:-------------------------13-13-15-17-17-17-17-17--|
A:--15-15-x-x-13-13-13-x-x-11-11-13-15-15-15-15-15--|     Then...
E:--13-13-x-x-11-11-11-x-x--------------------------|

e:--------------------------------------------------------------------------------|
B:--------------------------------------------------------------------------------|
G:--------------------------------------------------------------------------------|  
D:-------------------------13-13-13-13-13-13-13-13--------------------------------|
A:-15-15-15-15-15-15-15-15-11-11-11-11-11-11-11-11-11-11-11-11-11-11-11-11-11-11--| 
E:-13-13-13-13-13-13-13-13--------------------------9--9--9--9--9--9--9--9--9--9--|  

Outro (w/Main Riff)
e:--------------------------|          e:-----------------------|
B:--------------------------|          B:-----------------------| 
G:--------------------------| 2 Times  G:-----------------------| 2 Times 
D:--------------------------|          D:-----------------------|
A:--------------------------| Then...  A:-----------------------|
E:--4\1/4\1---4-4-6-8---8\--|          E:--4\1-4/8---4\1/4\1/8--|

Lyrics:
(INTRO)
Woo Hoo (3x)

(VERSE 1)
I got my head checked
By a jumbo jet
It wasn't easy
But nothing is, no

(CHORUS)
Woo Hoo   Well I feel heavy metal
Woo Hoo   And a piece that I'm made of
Woo Hoo   Well I lie and I'm easy
All of the time and I'm never sure why I need you
Yes I need you

(VERSE 2)
I got my head cloned
When I was young
It's not my problem
It's not my problem

(CHORUS)

(OUTRO)
Yeah yeah
Yeah yeah
Yeah yeah
Oh yeah

Questions, comments, or requests? Contact me at setchegary@hotmail.com
Scott Etchegary
"I'm not as think as you stoned I am."


Important: The song above is NOT stored on the Chordie server. The original song is hosted at members.tripod.com. Chordie works as a search engine and provides on-the-fly formatting. Chordie does not index songs against artists'/composers' will. To remove this song please click here.

This song is displayed as text-only. Transposing and tuning is only available for chordpro-songs.

Login - add to songbook

Rating click stars to rate

Layout
Accuracy

SHARE PAGE  




You need to log in to post comments