Guitar Tabs, Chords and Lyrics


All By Myself   Various Artists


Song: All By Myself
Band: Green Day
Album: Dookie (1994)
Tabbed by: John Norvilla (dah_dah_dah_16@hotmail.com)


[Riff 1]

e-----2---2---2---2---3---3---3---3------
B-------3---3---3---3---3---3---3---3----
G---------------------0------------------
D-----0----------------------------------
A----------------------------------------
E----------------------------------------

e-----2---2---2---2---3---3---3---3------
B-------3---3---3---3---3---3---3---3----
G---------------------0------------------
D-----0----------------------------------
A----------------------------------------
E----------------------------------------

(then repeat once)
(then Riff 2)
[Riff 2]

e-----4---4---4---4---5---5---5---5------
B-------5---5---5---5---5---5---5---5----
G---------------------0------------------
D-----0----------------------------------
A----------------------------------------
E----------------------------------------

e-----4---4---4---4---5---5---5---5------
B-------5---5---5---5---5---5---5---5----
G---------------------0------------------
D-----0----------------------------------
A----------------------------------------
E----------------------------------------


(it goes back to riff one after #2, but i don't have the cd handy....i did it from memory.
so listen to the cd to get it right)


** E-mail questions or comments to dah_dah_dah_16@hotmail.com **


Important: The song above is NOT stored on the Chordie server. The original song is hosted at members.tripod.com. Chordie works as a search engine and provides on-the-fly formatting. Chordie does not index songs against artists'/composers' will. To remove this song please click here.

This song is displayed as text-only. Transposing and tuning is only available for chordpro-songs.

Login - add to songbook

Rating click stars to rate

Layout
Accuracy

SHARE PAGE  




You need to log in to post comments