Guitar Tabs, Chords and Lyrics


Hiddencamerashow  Misc

  [Bm]              [A]                                                                           
E---------------------0--s----------------------0--s--
B---3-----2---------2---2-3---3-----2---------2---2-3-
G-----4-----4---4-2-------------4-----4---4-2---------
D-------4-----4-------------------4-----4-------------
A-2-------------------------2-------------------------
E-----------------------------------------------------

This is the main sort-of-riff throught the first bit of the verses that fits in like:
If you [Bm]want[A] carry a [Bm]gun[A]
If you [Bm]wont[A] learn to [Bm]run[A]
I can't make out quite what is happening next, but I like to play this
  [Bm]                [A]                [G]                                                                                             
E-----------------------------------------------------------------
B---3-----3---------2-----2---------3-----3---------3-----3-------
G-----4-----4---4-----2-----2---2-----0-----0---0-----0-----0---0-
D-------4-----4---------2-----2---------0-----0---------0-----0---
A-2---------------0-----------------------------------------------
E---------------------------------3---------------3---------------

I know it is wrong, but I have to improvise as it is unclear. I think the chords are right.
It fits in like:
[Bm]Hide from the [A]world it will [G]come for you
[Bm]You have no [A]place in this [G]time
CHORUS:
I can't hear what he is playing in the chorus, so just improvise with these chords
I like to use this picking pattern:
  [Bm]                                                                                              
E-----------------
B---3-----3-------
G-----4-----4---4-
D-------4-----4---
A-2---------------
E-----------------

And it's the [Bm]cars on the [A/C#]highway it's the [Bm]drunks singing [A/C#]my way
We're all [Bm]caught in a [A/C#]hidden camera [G]show
And it's the [Bm]thrill of [A/C#]deception, it's the [Bm]chill of re[A/C#]jection
In the [Bm]faces of the [A/C#]people we don't [G]know
The next verse and chorus is the same
BRIDGE:
Bm A/C# x3
[Bm]   [A/C#]     [G]  ENDING:
And it's the [Bm]cars on the [A/C#]highway it's the [Bm]drunks singing [A/C#]my way
We're all [Bm]caught in a [A/C#]hidden camera [G]show
And it's the [Bm]thrill of [A/C#]deception, it's the [Bm]chill of re[A/C#]jection
In the [Bm]faces of the [A/C#]people we don't [G]know
And it's the [Bm]blink of the [A/C#]shutter, it's the [Bm]hitman in the [A/C#]gutter
We're all [Bm]caught in a [A/C#]hidden camera [G]show
And I [Bm]close my [A/C#]eyes, turn my [Bm]face to the [A/C#]skies
I won't [Bm]smile for your [A/C#]hidden camera [G]show
Repeat chorus progression and end on Bm
That was quite hard
Please complain, it will do you good:
ihateibiza@hotmail.com

Important: The song above is NOT stored on the Chordie server. The original song is hosted at membres.lycos.fr. Chordie works as a search engine and provides on-the-fly formatting. Chordie does not index songs against artists'/composers' will. To remove this song please click here.

Text color:
Chord color:
Chord grids: 
Font size:    
Page size: 

A A/C# Bm G
variations - click chord images

Login - add to songbook

Transpose chords

Tuning

Rating click stars to rate

Layout
Accuracy

SHARE PAGE  




You need to log in to post comments