Guitar Tabs, Chords and Lyrics


Areyougonnagomyway   Lenny Kravitz


Received: from animal-farm.nevada.edu by redrock.nevada.edu (5.65c/M1.4)
	with SMTP id ; Fri, 9 Apr 1993 02:38:06 -0700
Received: from prism.nmt.edu by animal-farm.nevada.edu id ; Fri, 9 Apr 1993 02:38:05 -0700
Received: from jade.nmt.edu by prism.nmt.edu (4.1/SMI-4.1)
	id AA19273; Fri, 9 Apr 93 03:38:03 MDT
Message-Id: 
From: mystical@kochab (Gurupartap Davis)
Date: Fri, 9 Apr 1993 03:38:01 -0600
X-Mailer: Mail User's Shell (7.2.5 10/14/92)
To: jamesb@animal-farm.nevada.edu



             Lenny Kravitz:  Are You Gonna Go My Way?


     Riff 1:  2 times 

	|-------------------------------------3----|
	|-------------------------------------3----|
	|-2^4^2p0-------------2^4^2p0--------------|
	|---------2---0-2-------------2---0-2------|
	|------------------------------------------|
	|-----------0-------0-----------0----------|

     Riff 1a:  (with Riff 1), 6 times
	|------------------------------------------|   
	|-10^12^10p8-----------10^12^10p8----------|   
	|------------9---7-9--------------9---7-9--|   
	|------------------------------------------|   
	|------------------------------------------|   
	|------------------------------------------|



     Riff 2: 4 times
	|------------------------------------------|
	|------------------------------------------|
	|-2^4^2p0-------------2^4^2p0--------------|
	|---------2---0-2-------------2---0-2------|
	|------------------------------------------|
	|-----------0-------0-----------0-------0--|

     Lyrics:
	I was born long ago
	I am the chosen I'm the one
	I have come to save the day
	And I won't leave until I'm done
	
     Riff 3: 
	|------------------------------------------|
	|-5^7^5p3-------------5^7^5p3--------------|
	|---------5-0-3-5---0---------5-0-3-5---0--|
	|------------------------------------------|
	|------------------------------------------|
	|------------------------------------------|
     with
     Riff 3a:
	|------------------------------------------------|   
	|-13^15^13p11-------------13^15^13p11------------|   
	|------------12---10-12--------------12---10--12-|   
	|------------------------------------------------|   
	|------------------------------------------------|   
	|------------------------------------------------|

	So that's why you've got to try
	You've got to breathe and have some fun

	(Riff 2: 2 times)
	Though I'm not paid I play this game
	And I won't stop until I'm done

	
     Chorus:
	|-0---------------0------------------------|
	|-8---------------7------------------------|
	|-7---------------6------------------------|
	|-9---------------8------------------------|
	|------------------------------------------|
	|------------------------------------------|

	       But what I really want to know is

	|---------------------(7)------------------|
	|-9-9-7-9---------9-9--7--9----------------|
	|-9-9-7-9---------9-9--7--9----------------|
	|-9-9-7-9---------9-9--7--9----------------|
	|------------------------------------------|
	|------------------------------------------|
   
		  Are you gonna go my way

	|-0---------------0------------------------|
	|-8---------------7------------------------|
	|-7---------------6------------------------|
	|-9---------------8------------------------|
	|------------------------------------------|
	|------------------------------------------|

	       And I got to got to know

     Riff 1: 6 times (Riff 1a joins second time)



	(Riff 2: 4 times)
	I don't know why we always cry
	This we must leave and get undone
	We must engage and rearrange
	And turn this planet back to one

	(Riffs 3 and 3a: 2 times)
	So tell me why we got to die
	And kill each other one by one

	(Riff 2: 2 times)
	We've got to love and rub-a-dub
	We've got to dance and be in love

     Chorus

     Solo:
	E-blues:
	|---------------------------------|
	|-9-----7-------7-------5-5-7-5---|
	|-9-----7-------7-------6-6-7-6---|
	|-9-----7-------7-------7-7-7-7---|
	|---------------------------------|
	|---------------------------------|
	(repeat entire solo)
	
     Outro:

	Riffs 2 and 1a: 4 times


	|-0---------------0-------0-------------0-------|
	|-8---------------7-------8-------------7-------|
	|-7---------------6-------7-------------6-------|
	|-9---------------8-------9-------------8-------|
	|-----------------------------------------------|
	|-----------------------------------------------|


	|------------------------------------------|
	|-9-9-7-9---------9-9--7--9----------------|
	|-9-9-7-9---------9-9--7--9----------------|
	|-9-9-7-9---------9-9--7--9----------------|
	|------------------------------------------|
	|------------------------------------------|
   
		  Are you gonna go my way

	|-0---------------0------------------------|
	|-8---------------7------------------------|
	|-7---------------6------------------------|
	|-9---------------8------------------------|
	|------------------------------------------|
	|------------------------------------------|
	    'cause Baby I got to know


	Transcribed by Gurupartap Davis
	mystical@prism.nmt.edu
-- 

Gurupartap Davis         |You see?  The priests were right.  After we threw
mystical@jupiter.nmt.edu |those virgins in, the volcano stopped erupting!
                       SHUT THE HELL UP, GEEK!!!!




Important: The song above is NOT stored on the Chordie server. The original song is hosted at perso.efrei.fr. Chordie works as a search engine and provides on-the-fly formatting. Chordie does not index songs against artists/composers will. To remove this song please click here.

This song is displayed as text-only. Transposing and tuning is only available for chordpro-songs.

Login - add to songbook

Rating click stars to rate

Layout
Accuracy

SHARE PAGE  




You need to log in to post comments