Guitar Tabs, Chords and Lyrics


la negra tomasa   Caifanes







                                lg277126@hp9k.lag.itesm.mx
                                Eduardo A. Grijalva Meza

                        
                           CAIFANES
                     ~~~~~~~~~~~~~~~~~~~~
                        LA NEGRA TOMASA

INTRO:
~~~~~~~

E|-----------------------------------------------------------------
B|-----------------------------------------------------------------
G|-----------------------------------------------------------------
D|----------7---------9---------7---------9---------7---------9----
A|----------6-7-------6-9-------6-7-------6-9-------6-7--------6-9-
E|-----------------------------------------------------------------




      A                  B           A           B 
E|-----------------------------------------------------------------
B|-----------------------------------------------------------------
G|---------------------7-----9--------------------7----------------
D|--7----9-------------6-----6------7-----9-------6----------------
A|--6----6--------------------------6-----6------------------------
E|-----------------------------------------------------------------
 
etoy.........         de mi negra.. que cuando.. triste me pongo
    

CORO:
~~~~~~
      ay!         ay!        ay!!
E|-----------------3----------1----------------------------------------
B|-----------------2----------3----------------------------------------
G|------2---------------------3----------------------------------------
D|------2---------------------2----------------------------------------
A|------2---------------------1----------------------------------------
E|-----------------3----------1---------------------------------------



        acorde "A"               acorde "B"
E|------0---------           E|------0---------------  
B|------0---------           B|------2---------------
G|------2---------           G|------1---------------
D|------2---------           D|------0---------------
A|------1---------           A|------0---------------
E|------0---------           E|----------------------



NOTE:
IF YOU HAVE SOME QUESTION, PLEASE WRITE TO: lg277126@hp9k.lag.itesm.mx
  








Important: The song above is NOT stored on the Chordie server. The original song is hosted at tabfu.thudspace.net. Chordie works as a search engine and provides on-the-fly formatting. Chordie does not index songs against artists'/composers' will. To remove this song please click here.

This song is displayed as text-only. Transposing and tuning is only available for chordpro-songs.

Login - add to songbook

Rating click stars to rate

Layout
Accuracy

SHARE PAGE  




You need to log in to post comments