Chordie logo

nobodys fool   Cinderella














Date: Wed, 01 Jan 1997 14:39:12 -0500
From: Donna Enfinger 
Subject: TAB/Hard Rock

NOBODY'S FOOL 
 Words and music by TOM KEIFER
 From the Album NIGHT SONGS/ 1986Polygram records
 Submitted by JASON ROBERT ENFINGER
  
This is the beginning riff
                                                                             
E-|------0-----------1-------------0-------------3-----------0-----------1----|
B-|----1---1------3-----3-------1-----1-------3-----3-----1-----1-----3-----3-|
G-|---------------------------------------------------------------------------|
D-|---------------------------------------------------------------------------|
A-|-0----------0-------------0------------2-------------0----------0----------|
E-|---------------------------------------------------------------------------|
                                                                               
                                                                               
E-|----------------------------|     This is what I got so far from the song and it
B-|-----------------3----------|     Seems correct. I hope you enjoy. Hello to all my
G-|-----0---0----2-------------|     friends and I LOVE YOU MEEGAN ESTES!! 
D-|-------0---0----------------|				
A-|--3------------------2--3---|	        	     J.R.   KEESEVILLE, NEW YORK	
E-|----------------------------|







Important: The song above is NOT stored on the Chordie server. The original song is hosted at tabfu.thudspace.net. Chordie works as a search engine and provides on-the-fly formatting. Chordie does not index songs against artists/composers will. To remove this song please click here.

This song is displayed as text-only. Transposing and tuning is only available for chordpro-songs.

Login - add to songbook

Rating click stars to rate

Layout
Accuracy

SHARE PAGE  



You need to log in to post comments