"yes"; ?> are you gonna go my way acoustic by Lenny Kravitz - guitar chords, guitar tabs and lyrics - chordie

are you gonna go my way acoustic

Lenny Kravitz





Date: Mon, 13 Jan 1997 20:44:40 +0100 (MET)
From: Jan Frode Haugseth 
Subject: Are you gonna go my way acoustic by Lenny Kravitz

New version from: mley@acorn.co.uk (Martin Ley)

>> Originally From: mystical@kochab (Gurupartap Davis)

             Lenny Kravitz:  Are You Gonna Go My Way?


     Riff 1: ---- 2x ----
        |-------------------------------------------3----|
        |-------------------------------------------3----|
  G 1   |-2-^4-^2-p0-------------2-^4-^2-p0--------------|
        |------------2---0-2----------------2---0-2------|
        |------------------------------------------------|
        |--------------0-------0--------------0----------|


    
     Riff 2: ---- 6x ----
        |-------------------------------------------3----|
        |-------------------------------------------3----|
  G 1   |-2-^4-^2-p0-------------2-^4-^2-p0--------------|
        |------------2---0-2----------------2---0-2------|
        |------------------------------------------------|
        |--------------0-------0--------------0----------|
        |                                                |
        |                                                |
        |------------------------------------------------|   
        |-10^12^10p8-------------10^12^10p8--------------|   
  G 2   |------------9---7-9----------------9---7-9------|   
        |------------------------------------------------|   
        |------------------------------------------------|   
        |------------------------------------------------|

|---------------------------------------------------------

|    Riff 3: ---- 4x ----
|       |------------------------------------------------|
|       |------------------------------------------------|
|  G 1  |-2-^4-^2-p0-------------2-^4-^2-p0--------------|
|       |------------2---0-2----------------2---0-2------|
|       |------------------------------------------------|
|       |--------------0-------0--------------0-------0--|
|
|       I was born long ago
|       I am the chosen I'm the one
|       I have come to save the day
|       And I won't leave until I'm done
|---------------------------------------------------------

        
|              -- 3x --         ||
|       |-----------------------||-------------------|
|       |-----------------------||-------------------|
|  G 1  |-5-^7-^5-p3------------||--5---4---3--2--4--|
|       |------------5-0-3-5--0-||-------------------|
|       |-----------------------||-------------------|
|       |-----------------------||-------------------|
|       |                                            |
|       |      -- 3x --         ||                   |
|       |-----------------------||-------------------|
|       |-13^15^13p11-----------||-------------------|
|  G 2  |------------12--10-12--||--12--10--9--10-12-|
|       |-----------------------||-------------------|
|       |-----------------------||-------------------|
|       |-----------------------||-------------------|
|
|        So that's why you've got to try
|        You've got to breathe and have some fun
|---------------------------------------------------------

|    Riff 3    2x
|
|        Though I'm not paid I play this game
|        And I won't stop until I'm done
|---------------------------------------------------------
        
|    Chorus:
|       |----0-------------------0--------------------|
|       |----0-------------------0--------------------|
|       |----7-------------------6--------------------|
|       |----9-------------------7--------------------|
|       |---------------------------------------------|
|       |---------------------------------------------|
|              But what I really want to know is


|       |------------------------------------------|
|       |-9-9-7-9---------------------9-9--12-9----|
|       |-9-9-7-9---------------------9-9--12-9----|
|       |-9-9-7-9---------------------9-9--12-9----|
|       |------------------------------------------|
|       |------------------------------------------|
|                 Are you gonna go my way


|       |----0---------------0------------------------|
|       |----0---------------0------------------------|
|       |----7---------------6------------------------|
|       |----9---------------7------------------------|
|       |---------------------------------------------|
|       |---------------------------------------------|
|            And I got to    got to know
|
|---------------------------------------------------------

       Riff 1    1x

       Riff 2    3x
|---------------------------------------------------------

       Riff 3    4x    
        I don't know why we always cry
        This we must leave and get undone
        We must engage and rearrange
        And turn this planet back to one
|---------------------------------------------------------
        
               -- 3x ---------  ||
        |-----------------------||-------------------|
        |-----------------------||-------------------|
        |-5-^7-^5-p3------------||--5---4---3--2--4--|
        |------------5-0-3-5--0-||-------------------|
        |-----------------------||-------------------|
        |-----------------------||-------------------|
        |                                            |
        |      -- 3x --------   ||                   |
        |-----------------------||-------------------|
        |-13^15^13p11-----------||--13--12--11-10-12-|
        |------------12--10-12--||-------------------|
        |-----------------------||-------------------|
        |-----------------------||-------------------|
        |-----------------------||-------------------|

        So tell me why we got to die                  
        And kill each other one by one
|---------------------------------------------------------

       Riff 3    2x    

        We've got to love and rub-a-dub
        We've got to dance and be in love
|---------------------------------------------------------

     Chorus
|---------------------------------------------------------

     Solo:
              12x in total --             -- ending with:
        |---------------------------------||-----------------|
        |-9-----7-------7-------5-5-7-5---||-----------------|
        |-9-----7-------7-------6-6-7-6---||-----------------|
        |-9-----7-------7-------7-7-7-7---||-----0-1---------|
        |---------------------------------||---4-------------|
        |---------------------------------||-----------------|
        (repeat 4x by itself, then 8x under solo

|---------------------------------------------------------
        
      Outro:

        Riff 2    4x


        |-0----------0-------0-------------0-------|
        |-0----------0-------0-------------0-------|
        |-7----------6-------7-------------6-------|
        |-9----------7-------9-------------7-------|
        |------------------------------------------|
        |------------------------------------------|

|---------------------------------------------------------

        |------------------------------------------|
        |-9-9-7-9---------------------9-9--7--9----|
        |-9-9-7-9---------------------9-9--7--9----|
        |-9-9-7-9---------------------9-9--7--9----|
        |------------------------------------------|
        |------------------------------------------|
                  Are you gonna go my way


        |-0---------------0------------------------|
        |-8---------------7------------------------|
        |-7---------------6------------------------|
        |-9---------------8------------------------|
        |------------------------------------------|
        |------------------------------------------|
            'cause Baby I got to know


        Transcribed by Gurupartap Davis
        mystical@prism.nmt.edu

        Amended by Martin Ley
        mley@acorn.co.uk
-- 

Gurupartap Davis         |You see?  The priests were right.  After we threw
mystical@jupiter.nmt.edu |those virgins in, the volcano stopped erupting!
                       SHUT THE HELL UP, GEEK!!!!




Lenny Kravitz - 'Are you Gonna go my way (solo)'         
 
E-|--------------------------------------------------------------------|
B-|--------------------------------------------------------------------|
G-|----------12h14p12vvvbbb--------------------------------------------|
D-|-14vvvv------------------14p12-12--14-------------------------------|
A-|--------------------------------------12b14--12---------------------|
E-|------------------------------------------------15---12-10-12-12sss-|
                  
E-|-----------------------------------------------------------------------|
B-|------------------------------------------------------17----15s17vvvvv-|
G-|-----------------------9h11b13----9h11p9----9h11sss16----16------------|
D-|------9---11p9----9h11-------------------11----------------------------|
A-|--s11----------11------------------------------------------------------|
E-|-----------------------------------------------------------------------|
                                         
E-|-----------------------------15--17b19vvv--17b19vv-17b19vv-17b19vvv-|
B-|-17vvvvvvvvv19p17vvvv17vv17vvv--------------------------------------|
G-|--------------------------------------------------------------------|
D-|--------------------------------------------------------------------|
A-|--------------------------------------------------------------------|
E-|--------------------------------------------------------------------|
                                                                               
E-|-17b19rb17p15-----------------------------|
B-|--------------17vv-----17vv-----17b20vvv--|
G-|------------------------------------------|
D-|------------------------------------------|
A-|------------------------------------------|
E-|------------------------------------------|
                                                                               
E-|-----------------------------------------------------------------|
B-|--17b20v--17b20v--17b20v--17b20v--17b20v--17b20rb17p15----15--17-|
G-|-------------------------------------------------------16--------|
D-|-----------------------------------------------------------------|
A-|-----------------------------------------------------------------|
E-|-----------------------------------------------------------------|

E-|---------------------------------12----------12----------------|
B-|------------------------------------12-15b17----15p12----------|
G-|-16p14p12----12h14p12-----14b16-----------------------14p12----|
D-|----------14----------14------------------------------------14-|
A-|---------------------------------------------------------------|
E-|---------------------------------------------------------------|
                                                                               
E-|-12----------12--------------------------|
B-|----12-15b17----15p12--------------15p12-|
G-|----------------------14p12--14b16-------|
D-|-----------------------------------------|
A-|-----------------------------------------|
E-|-----------------------------------------|

E-|-------12-------12--------15p12----12------------------------------|
B-|-15b17----15b17----15b17--------15------15p12----15--12------------|
G-|----------------------------------------------14---------14p12--14-|
D-|-------------------------------------------------------------------|
A-|-------------------------------------------------------------------|
E-|-------------------------------------------------------------------|
                                                 
E-|-----------------------------|
B-|-----------------------------|
G-|-12b14rb12p9---12vvvvvvvvvv--|
D-|-----------------------------|
A-|-----------------------------|
E-|-----------------------------|
                                                                               
There you go.  It isn't exact, but I think it's close.
At the very least it should give you a place to start.

Questions, comments, corrections, and additions are always welcome.

holladay@engin.umich.edu
------------------------


Date: Sat, 16 Dec 1995 18:11:42 -0800

Subject: TAB: Are You Gonna Go My Way; Lenny Kravitz


(Riff a) Full                                           Full          
-||--------------------------------------------------|----------------
-||--------------------------------------------------|----------------
-||*------2-----(2)p0--------------------------------|---2-----(2)----
-||*-------------------2-----------0-----2-----------|----------------
-||--------------------------------------------------|----------------
-||--------------------------0--------------------0--|----------------
                                                                      

                                  (w/ Riff a)    Full                 
----------------------------3--3---||---------------------------------
----------------------------3--3---||---------------------------------
p0---------------------------------||*------------14-----(14)p12------
----2-----------0-----2------------||*--------------------------------
-----------------------------------||---------------------------------
----------0------------------------||---------------------------------
                                                                      

                            P.M.       Full                           
---------------------------------|------------------------------------
---------------------------------|------------------------------------
---------------------------------|------14-----(14)p12----------------
---14------------12--14~~~---12--|-------------------------14---------
----------14---------------------|------------------------------------
---------------------------------|------------------------------------
                                                                      

                     P.M.      I was born                             
---------------------------||-----------------------------------------
---------------------------||-----------------------------------------
--------------------------*||---2-----(2)p0---------------------------
-------12-----14~~~---12--*||-------------------2-----------0---------
14-------------------------||-----------------------------------------
---------------------------||-------------------------0---------------
                                                                      

            Full                                                      
---------|----------------------------------------3--3--|-------------
---------|----------------------------------------3--3--|-------------
---------|---2-----(2)p0--------------------------------|-------------
2--------|----------------2-----------0-----2-----------|-------------
---------|----------------------------------------------|-------------
------0--|----------------------0-----------------------|-------------
                                                                      

(riff b)  So that's...    Full                                        
---------------------------------------------------------------||-----
---------------------------------------------------------------||-----
---------------------------17-----(17)p15---------------------*||-----
-------------------------------------------17------15--17~~~--*||-----
-----------------------------------------------17--------------||-----
---------------------------------------------------------------||-----
                                                                      

                                           (w/ Riff b)                
----------------------------------------|-----------------------------
----------------------------------------|-----------------------------
----------------------------------------|-----------------------------
17--17--x--15--x--14--x--15--x--17--17--|-----------------------------
----------------------------------------|-----------------------------
----------------------------------------|-----------------------------
                                                                      

   Full                                                               
---------------------------------||-----------------------------------
---------------------------------||-----------------------------------
----5-----(5)p3-----------------*||--5--5--x--4--x--3--x--2--x--4-----
-----------------5-----3--5-----*||-----------------------------------
---------------------------------||-----------------------------------
--------------------3--------3---||-----------------------------------
                                                                      

   But  what I really......                                           
|---0--------0--0--------------------------|--0-----0--0--------------
|---3--------3--3-----------------------2--|--2-----2--2--------------
|---4--------4--4-----------------------2--|--2-----2--2--------------
|------------------------------------------|--------------------------
|------------------------------------------|--------------------------
|------------------------------------------|--------------------------
                                                                      

   Slide                                                              
---|----------------------|-----------------|--0-----0--0-------------
2--|--9-----9-----7--9----|--9-----9--12--9-|--3-----3--3-------------
2-/|--9-----9-----7--9---\|--9-----9--12--9\|--4-----4--4-------------
---|----------------------|-----------------|-------------------------
---|----------------------|-----------------|-------------------------
---|----------------------|-----------------|-------------------------
                                                                      

                     w/ Flanger                                       
---------------0--|---------------------------------|--------5--------
---------------2--|---9-----------7--------------7--|--------5--------
---------------2--|---9-----x-----7-----x-----x--7--|--x-----6--------
---------------2--|---9-----------7--------------7--|--------7--------
---------------0--|---------------------------------|-----------------
------------------|---------------------------------|-----------------
                                                                      

                                                                      
---5--||--------------------------------------------------------------
7--5--||--------------------------------------------------------------
7--6\*||--------------------------------------------------------------
7--7-*||--------------------------------------------------------------
------||--------------------------------------------------------------
------||--------------------------------------------------------------
                                                                      

-----------------------
Are you gonna go my way - as performed by Lenny Kravitz on MTV acoustic
-----------------------

Acoustic version from: jafro@max.hint.no (Jan Frode Haugseth)

This is my first tab ever, so please bear with me. I think i got the strumming
quite right, and the vertical lines. I have only heard this song twice or so,
so you can't expect me to get the pull-offs or slides quite right. But it
sounds cool when you play it this way. You can, of course, do your own
variations, when it comes to the pulloffs and strummings, because mine are not
the same as Kravitz' anyway. And, I would like to get feedback on this tab,
since it is my first one, and I would like to hear if you did get it right.
Yeah, and I will dedicate this to my girlfriend, Ingrid Elise :). Or is that
wrong?

Tip:    This song really rule if you have two guitars, and can get some other
        human being to play the b part of the verse riffs.

The notification I used:

X = Mute string with left hand finger
p = pull off (using left hand finger)
b = bend
/ = slide up

Ok, here goes (this simple version kicks ass much more than that original):D

Opening riff, + beginning lines of the song,
first 4 times then 5 times with vocals

    E5  E5    E5    A   G A E/A
e|--------------------|--------------|
B|--------------------|--------------|
G|--1---1-1---1-1---2p|-0-2-/9-------|
D|--2---2-2---2-2-----|-----/9-------|
A|--2---2-2---2-2-----|--------------|
E|--0---0-0---0-0-----|--------------|

This riff for:

       1st verse                          2nd verse

       I was born                         I don't know why
       long ago                           we always cry
       I am the chosen I'm the one        This we must leave and get undone
       I have come                        We must engage
       to save the day                    and rearrange

Then this one once:

    E   E     E     A   G A   E5    F5    F#5   G5
e|--------------------|-------0-0-0--1-1-1--2-2-2--3-3-3|
B|--------------------|-------0-0-0--1-1-1--2-2-2--3-3-3|
G|--1---1-1---1-1---2-|-0-2---1-1-1--2-2-2--3-3-3--4-4-4|
D|--2---2-2---2-2-----|-------2-2-2--3-3-3--4-4-4--5-5-5|
A|--2---2-2---2-2-----|-------2-2-2--3-3-3--4-4-4--5-5-5|
E|--0---0-0---0-0-----|-------0-0-0--1-1-1--2-2-2--3-3-3|
                              |----4/1speed increase----|

  And I won't leave until I'm done        And get this planet back to one





Then this twice:
    G5  G5    G5    D   A D  G
e|--------------------|--------------|
B|--------------------|--------------|
G|--4---4-4---4-4---5-|-2-5-/12------|
D|--5---5-5---5-5-----|-----/12------|
A|--5---5-5---5-5-----|--------------|
E|--3---3-3---3-3-----|--------------|

       So that's why                      So tell me why
       you've got to try                  We gotta die

Then this once
    G5  G5    G5    D   A D   G5     F#5    F5     E5
e|--------------------|-------3-3-3--2-2-2--1-1-1--0-0-0|
B|--------------------|-------3-3-3--2-2-2--1-1-1--0-0-0|
G|--4---4-4---4-4---5-|-2-5---4-4-4--3-3-3--2-2-2--1-1-1|
D|--5---5-5---5-5-----|-------5-5-5--4-4-4--3-3-3--2-2-2|
A|--5---5-5---5-5-----|-------5-5-5--4-4-4--3-3-3--2-2-2|
E|--3---3-3---3-3-----|-------3-3-3--2-2-2--1-1-1--0-0-0|
                              |----4/1speed increase----|

       You've got to breathe -            And kill each other -
       and have some fun                  one by one


This twice:
    E5  E5    E5    A   G A E/A
e|--------------------|--------------
B|--------------------|--------------
G|--1---1-1---1-1---2-|-0-2-/9-------
D|--2---2-2---2-2-----|-----/9-------
A|--2---2-2---2-2-----|--------------
E|--0---0-0---0-0-----|--------------

       Though I'm not paid -              We've got to love -
       I play this game                   and rub-a-dub

This once:
    E   E     E    A   G A   E5    F5    F#5   G5
e|-------------------|-------0-0-0--1-1-1--2-2-2--3-3-3|
B|-------------------|-------0-0-0--1-1-1--2-2-2--3-3-3|
G|-1---1-1---1-1---2-|-0-2---1-1-1--2-2-2--3-3-3--4-4-4|
D|-2---2-2---2-2-----|-------2-2-2--3-3-3--4-4-4--5-5-5|
A|-2---2-2---2-2-----|-------2-2-2--3-3-3--4-4-4--5-5-5|
E|-0---0-0---0-0-----|-------0-0-0--1-1-1--2-2-2--3-3-3|
                             |----4/1speed increase----|

       And I won't stop until I'm done    We've got to dance and be in love


Then chorus once:
    G5                        F#5           F5          E
e|--------------------|-------------------|-------------0-----
B|--------------------|-------------------|-------------0-----
G|--4---4-4---4-4---4-|-4---4-3---3-3---3-|-2---2-2---2-X-----
D|--5---5-5---5-5---5-|-5---5-4---4-4---4-|-3---3-3---3-2-----
A|--5---5-5---5-5---5-|-5---5-4---4-4---4-|-3---3-3---3-2-----
E|--3---3-3---3-3---3-|-3---3-2---2-2---2-|-1---1-1---1-0-----
                                                       Let e & B ring here!

                 But what I really want to know is
                 Are you gonna go my way



Then maybe this four times or so:
    E5  E5    E5    A     G A E/A
e|----------------------|-------------
B|----------------------|-------------
G|--1---1-1---1-1---2bp-|-0-2-/9------
D|--2---2-2---2-2-------|-----/9------
A|--2---2-2---2-2-------|-------------
E|--0---0-0---0-0-------|-------------






































variations - click chord images
Transpose chords:
Tuning:
Cool service:
View: Size:
A  A  A
Rating:
Layout:
  • Currently 0/5 Stars.
  • 1
  • 2
  • 3
  • 4
  • 5
 
Accuracy:
  • Currently 2.7/5 Stars.
  • 1
  • 2
  • 3
  • 4
  • 5
 
click stars to rate
Chordie recommends:
Get acoustic guitar lessons and electric guitar lessons at JamPlay.com
Songbook:
Login to add this song to your songbook
Support the artist
Preview/buy this song
MSN Music
Why this non-profit ad?

 
login to add comments/video/corrections