hedonism

Skunk Anansie





Date: Sun, 23 Mar 97 11:18:25 UT
From: Dave Caren 
To: guitar@olga.net
Cc: ajfitch@mindspring.com
Subject: Tabs  Hedonism by skunk anasie



----------
Sent:  20 March 1997 14:58
To:  'ajfitch@midspring.com'
Subject:  tabs

Hedonisim
by 
Skunk Anansie
Tabbed by
Dave Caren


                         Fm                                              D#
    
e|----------------------------------------------------------------------------
--------------
     B|---------------9--------8h9-10--9---------------------------- 
-8-----------8----------
     
G|---------------8--------8-----8---8-----------------------------8---------8-
---8------
     
D|---------10---------------------------------------------------8---------8---
-----------
     
A|------8---------------------------------------------------6----------6------
------------ 
     
E|----------------------------------------------------------------------------
--------------


       This is the riff for the verse of the song play around with it you will 
get the hang of it !!



        I hope your feeling happy now, I see you feel no pain and all it seems
     
        I wonder what your doing now, I wonder if you think of me at all

        Do you still play the same rules now, a lot of special moves to 
someone else

        I hope your feeling happy now

       Chorus

                                                      Just because you 
    
     e|--------8---------8--------8--------8---------8-----------
     B|----11------11-------11------11-------11---------------
     G|-------------------------------------------------------------
     D|-------------------------------------------------------------
     A|-------------------------------------------------------------
     E|-------------------------------------------------------------


      D#                A#                                      Fm             
G#
      Feel good ,   dosent make you right  oh no
                                           D#            A#                    
        Fm
     Just because you feel good , still want you here tonight





    Does laughter still discover you , I see through all those smiles that 
seem so right

    Do you still have the same friends now, to Smoke away your problems and 
your light

    How do you remember me , the one who made you laugh until you cried

    I hope your feeling happy now

    Chorus...

     Solo..... with whah whah pedal

     
e|-----------------------------------------------------10------8----6----5----
-----------------------------
      
B|----------6--------------6-----------6---------6---------------------------8
----6----------------6-----
      
G|----------7--------5h7--------5h7------5h7----------------------------------
----------5--5h7--------
      
D|----5-----------------------------------------------------------------------
------------------------------
      
A|----5-----------------------------------------------------------------------
------------------------------
      
E|----------------------------------------------------------------------------
-------------------------------


      
e|----------------------------------------------------------------------------
--
      B|--------6------------6--------6-------6---8h6--8h6--8h6--8h6---8h6--
      
G|--------7------5h7-----5h7----5h7----------------------------------------
      
D|----5-----------------------------------------------------------------------
-
      
A|----5-----------------------------------------------------------------------
-
      
E|----------------------------------------------------------------------------
--
                                                                               
                                                   Just because...     
     
e|-----------------------------------------10---8----6---5--------------------
--------------------------------------------------5---5---5---5-
      
B|-------6------------6-------6-------6---------------------8---6-------------
-6------------6---------6-------6------6-----8---8---8---8----
      
G|-------7------5h7-----5h7----5h7---------------------------------5---5h7----
-----------7----5h7---5h7----5h7--------------------------    
      
D|---5------------------------------------------------------------------------
-------------5------------------------------------------------------
      
A|---5------------------------------------------------------------------------
-------------5------------------------------------------------------
      
E|----------------------------------------------------------------------------
---------------------------------------------------------------------


                     F              C                                       Gm 
                              A#
       you feel good , doesnt make you right you right , oh no
                                      F               C                        
       Gm                               A#
       Just because you feel good , still want you here tonight , want you

       Outro..

      
e|----------------------------------------------------------------------------
-----------------------
       
B|------------11---10h11---12----11-----------------------------10------------
----10----------
       
G|------------10---10--------10---10------------------------10----------------
10--------10----
       
D|-------12-----------------------------------------------10----------------10
--------------------
       
A|---10------------------------------------------------8-----------------8----
---------------------
       
E|----------------------------------------------------------------------------
-----------------------

      Wonder what your doing now , I hope your feeling happy now.....ect ect







































variations - click chord images
Transpose chords:
Tuning:
Cool service:
View: Size:
A  A  A
Rating:
Layout:
  • Currently 0/5 Stars.
  • 1
  • 2
  • 3
  • 4
  • 5
 
Accuracy:
  • Currently 3.5/5 Stars.
  • 1
  • 2
  • 3
  • 4
  • 5
 
click stars to rate
Chordie recommends:
Learn to play songs at Jamplay.com with video guitar lessons
Songbook:
Login to add this song to your songbook
Support the artist
Preview/buy this song
MSN Music
Why this non-profit ad?

 
login to add comments/video/corrections