Friends Gonna Be Strangers

Merle Haggard

 FBb
Oh the love you promised would be mine forever
 FC
I would have bet my bottom dollar on
 FBb
Well it sure turned out to be a short forever
 FCF
Just once I turned my back and you were gone

 FBb
From now on all my friends are gonna be strangers
 FC
I'm all through ever trusting anyone
 FBb
The only thing I can count on now is my fingers
 FCF
I was a fool believing in you and now you are gone

 FBb
It amazes me not knowing any better
 FC
Than to think I had a love that would be true
 FBb
Why I should be taken out tarred and feathered
 FCF
To have let myself be taken in by you

 FBb
From now on all my friends are gonna be strangers
 FC
I'm all through ever trusting anyone
 FBb
The only thing I can count on now is my fingers
 FCF
I was a fool believing in you and now you are gone

INTRO triplet eighths

__ ___ ___ __ __ __ __ __
| | | | | | | | | | | | | | | | | | | | | |
|----------6-5-0-3-1----|-------------1--1--5-53|-------6-----------3---|
|--------------------0-3|-1--------1-------/---P|----------5-----------6|
|-----------------------|-----------------------|-----------------------|
|-----------------------|-----------------------|-----------------------|
|-----------------------|-----------------------|-----------------------|
|-----------------------|-----------------------|-----------------------|


___ __ __ __ __ __ __
| | | | | | | | | | | | | | | | | | | |
|------6-0-3-131--------|-----------------------|-----------------------|
|------------HP---3-1---|----------1------------|-----------------------|
|-----------------------|-3--1--2---------------|-----------------------|
|----------------------3|------H---------0--1--2|-3---------------------|
|-----------------------|-------------3---------|-----------------------|
|-----------------------|-----------------------|-----------------------|


SOLO
__ ___ ___ ___ __ __ __ __
| | | | | | | | | | | | | | | | | | | | | | |
|----6-5-0-3-1----------|-----------------------|----------1------------|
|--------------0-3-1----|-----------------------|-----------------------|
|--------------------1-3|-2--------0-----------0|-2-----3-----3--------1|
|-----------------------|-------2-----3-----3---|-------B-----B-----3---|
|-----------------------|-----------------------|-----------------------|
|-----------------------|-----------------------|-----------------------|


__ __ __ __ __
| | | | | | | | | | | | | | | | |
|-----------------------|-----------------------|-------------------5--3|
|-----------------------|----------------1------|----------6------------|
|----------3------------|-------3-----------3-12|-------5---------------|
|-------3--B------------|-------B-------------H-|-3----/----------------|
|-----------------------|-----------------------|-----------------------|
|-----------------------|-----------------------|-----------------------|


__ __ __ __ __
| | | | | | | | | | | | | | | | |
|-------6-65-----------3|-------8-----8-----8---|-----------------------|
|---------P---------5---|-6-----B-----B--------8|-------6---------------|
|----------------5------|----------------------B|----------5------------|
|-----------------------|-----------------------|-----------------------|
|-----------------------|-----------------------|-----------------------|
|-----------------------|-----------------------|-----------------------|


OUTRO
___ __ __ __ __
| | | | | | | | | | | | | |
|6-0-3--1---------------|-----------------------|
|----------0--3-31-----1|-----------------------|
|---------------P---3---|-2---------------------|
|-----------------------|-------2-----3---------|
|-----------------------|----3------------------|
|-----------------------|-----------------------|



Bb C F
variations - click chord images
Transpose chords:
Tuning:
Cool service:
View: Size:
A  A  A
Rating:
Layout:
  • Currently 3.1/5 Stars.
  • 1
  • 2
  • 3
  • 4
  • 5
 
Accuracy:
  • Currently 2.4/5 Stars.
  • 1
  • 2
  • 3
  • 4
  • 5
 
click stars to rate
Chordie recommends:
Check out JamPlay.com for online video guitar lessons
Songbook:
Login to add this song to your songbook
Support the artist
Preview/buy this song
MSN Music
Why this non-profit ad?

 
login to add comments/video/corrections