Guitar Tabs, Chords and Lyrics


Yesterday Is Here   Yes


||-----|--------------9--|---------------|--------------9--12--|------








||-----|--12--12--12-----|---------------|--12--12--12---------|------








||-----|-----------------|--9--9--9--11--|---------------------|------



||--9--|-----------------|---------------|---------------------|------



||-----|-----------------|---------------|---------------------|------



||-----|-----------------|---------------|---------------------|------





                                    


q  q  q     Q   e   e   Q     Q  e  e  Q      Q   e   q   w     Q


                                                                            


9--9-----|--------------9--|---------------|-----------------|--------
---------|--12--12--12-----|---------------|-----------------|--------
---------|-----------------|--9--9--9--11--|----------11--9--|--------
------9--|-----------------|---------------|--11--11---------|--11----
---------|-----------------|---------------|-----------------|--------
---------|-----------------|---------------|-----------------|--------





                                    


e   q   w     w   q   q   q   w      w   q   q   q   w      q


                                                                            


-----------|--12--14--16--12--14--|--12--14--16--12--14--|-----|------
-----------|----------------------|----------------------|-----|------
----11--9--|----------------------|----------------------|-----|------
11---------|----------------------|----------------------|--9--|------
-----------|----------------------|----------------------|-----|------
-----------|----------------------|----------------------|-----|------





                                    


Q   e   e   Q     Q  e  e  Q      Q   e   e   q  Q      q  q  q


                                                                            


------------9--|---------------|--------------9--12--|--9--9-----|----
12--12--12-----|---------------|--12--12--12---------|-----------|----
---------------|--9--9--9--11--|---------------------|-----------|----
---------------|---------------|---------------------|--------9--|----
---------------|---------------|---------------------|-----------|----
---------------|---------------|---------------------|-----------|----





                                    


Q   e   e   Q     Q  e  e  Q      Q   e   q   w     q  e  e  q  q


                                                                            


------------9--|---------------|-----------------|--r--------3--------
12--12--12-----|---------------|-----------------|--e--5--6-----5-----
---------------|--9--9--9--11--|----------11--9--|--s-----------------
---------------|---------------|--11--11---------|--t-----------------
---------------|---------------|-----------------|--------------------
---------------|---------------|-----------------|--------------------





                                    


   q  q  q  q  q     Q   e   e   Q     Q  e  e  Q      Q   e   e


                                                                            


|-----3-----------|--------------9--|---------------|-----------------
|--6-----5--6-----|--12--12--12-----|---------------|--12--12--12-----
|-----------------|-----------------|--9--9--9--11--|-----------------
|--------------9--|-----------------|---------------|-----------------
|-----------------|-----------------|---------------|-----------------
|-----------------|-----------------|---------------|-----------------





                                    


q  Q      q  q  q     Q   e   e   Q     Q  e  e  Q      Q   e   q


                                                                            


9--12--|--9--9-----|--------------9--|---------------|----------------
-------|-----------|--12--12--12-----|---------------|----------------
-------|-----------|-----------------|--9--9--9--11--|----------11----
-------|--------9--|-----------------|---------------|--11--11--------
-------|-----------|-----------------|---------------|----------------
-------|-----------|-----------------|---------------|----------------





                                    


w     q  e  e  q  q     q  q  q  h     e  e  q  q     q  q  q  h


                                                                            


---|--r--------3-----|-----3--------|--------3-----|-----3------------
---|--e--5--6-----5--|--6-----5--6--|--5--6-----5--|--6-----5--6------
9--|--s--------------|--------------|--------------|------------------
---|--t--------------|--------------|--------------|------------------
---|-----------------|--------------|--------------|------------------
---|-----------------|--------------|--------------|------------------





                                    


   e  e  q  q     q  q  e  e  q     e  e  h  q     q     Q   e


                                                                            


|--------3-----|-----3-----------|-----------r--|-----|---------------
|--5--6-----5--|--6-----6--5--3--|-----------e--|-----|--12--12-------
|--------------|-----------------|--5--3--2--s--|-----|---------------
|--------------|-----------------|-----------t--|--9--|---------------
|--------------|-----------------|--------------|-----|---------------
|--------------|-----------------|--------------|-----|---------------





                                    


e   Q     Q  e  e  Q      Q   e   e   q  Q      q  q  q     Q   e


                                                                            


----9--|---------------|--------------9--12--|--9--9-----|------------
12-----|---------------|--12--12--12---------|-----------|--12--12----
-------|--9--9--9--11--|---------------------|-----------|------------
-------|---------------|---------------------|--------9--|------------
-------|---------------|---------------------|-----------|------------
-------|---------------|---------------------|-----------|------------





                                    


e   Q     Q  e  e  Q      Q   e   q   w     q  e  e  q  q     q  q


                                                                            


----9--|---------------|-----------------|--r--------3-----|-----3----
12-----|---------------|-----------------|--e--5--6-----5--|--6-------
-------|--9--9--9--11--|----------11--9--|--s--------------|----------
-------|---------------|--11--11---------|--t--------------|----------
-------|---------------|-----------------|-----------------|----------
-------|---------------|-----------------|-----------------|----------





                                    


q  h     e  e  q  q     q  q  q  h     e  e  q  q     q  q  q  h


                                                                           


------|--------3-----|-----3--------|--------------|------------------
5--6--|--5--6-----5--|--6-----5--6--|--3--5--7--3--|--5--7--3--5------
------|--------------|--------------|--------------|------------------
------|--------------|--------------|--------------|------------------
------|--------------|--------------|--------------|------------------
------|--------------|--------------|--------------|------------------





                                    


   e  e  q  q     q  q  e  e  q     e  e  q          e  e  e  e  e


                                                                           


|--------------|-----------------|-----------|--||--------------------
|--3--5--7--3--|--5--7--3--------|-----------|--||---7--5-------------
|--------------|-----------6--4--|--2--------|--||*--------7--6--4----
|--------------|-----------------|-----5--4--|--||*-------------------
|--------------|-----------------|-----------|--||--------------------
|--------------|-----------------|-----------|--||--------------------





                                    


e  e  e   8x     e   e   e   e   e   e   e   e      e   e  e  e


                                                                           


----------||--|--14--12--10----------------------|--------------------
----------||--|--------------14--12--10----------|--------------------
---------*||--|--------------------------12--11--|--11--9--7----------
7--5--4--*||--|----------------------------------|------------11------
----------||--|----------------------------------|--------------------
----------||--|----------------------------------|--------------------





                                    


h         vocwl stawts   w      q  e   e   Q   Q     e  q   q   q


                                                                           


---|--||-----r--|--r--|--r--||--r--10--10--12--8--|--8--10------------
---|--||-----e--|--e--|--e--||--e-----------------|---------10--------
---|--||-----s--|--s--|--s--||--s-----------------|-------------10----
9--|--||-----t--|--t--|--t--||--t-----------------|-------------------
---|--||--------|-----|-----||--------------------|-------------------
---|--||--------|-----|-----||--------------------|-------------------





                                    


   e  e   e  e   q   e   e      e   e   q   s   s   e   s   s   e


                                                                           


|--8--10--8--10------10--12--|--10--12------12--10--12--12--10--12----
|----------------10----------|----------13----------------------------
|----------------------------|----------------------------------------
|----------------------------|----------------------------------------
|----------------------------|----------------------------------------
|----------------------------|----------------------------------------





                                    


   q  e   e   e   q  q     e  e  e  e  Q     e  e  e  e  q  e  e


                                                                           


|--r--------------------|-----------------|---------------------------
|--e--------------8-----|-----8--8--8--8--|---------------------------
|--s--10--10--10-----9--|--9--------------|--7--5--7--5--5--5--4------
|--t--------------------|-----------------|---------------------------
|-----------------------|-----------------|---------------------------
|-----------------------|-----------------|---------------------------





                                    


   e  e  e  e  e  Q     q  e  e  e  q  q     e  e  e  e  Q     e


                                                                           


|--------------------|--r--1--1--1--3--0--|--0--3--3--3--1--|---------
|--------------3-----|--e-----------------|-----------------|--3------
|--5--4--5--4-----4--|--s-----------------|-----------------|---------
|--------------------|--t-----------------|-----------------|---------
|--------------------|--------------------|-----------------|---------
|--------------------|--------------------|-----------------|---------





                                    


e  e  e  q  e  e     e  e  e  e  e  e  q     e2  e   e   q   q


                                                                           


------------8--7--|--8--7--8--7--8--7--8--|--12--12--12--10-----------
1--3--1--1--------|-----------------------|------------------13-------
------------------|-----------------------|---------------------------
------------------|-----------------------|---------------------------
------------------|-----------------------|---------------------------
------------------|-----------------------|---------------------------





                                    


w      e   e   e   q   q   w      e   e   e   q   q   e     w


                                                                           


----|--12--12--12--10----------|--17--17--17--15----------|----|------
13--|------------------13--10--|------------------18--15--|\5--|------
----|--------------------------|--------------------------|----|------
----|--------------------------|--------------------------|----|------
----|--------------------------|--------------------------|----|------
----|--------------------------|--------------------------|----|------





                                    


e   e   e   q   q   e     w        e   e   e   q   q  e    w


                                                                           


17--17--17--15---------|-----|--|------------------8--5--|/19--|------
----------------18--15\|--5--|--|--17--17--17--15--------|-----|------
-----------------------|-----|--|------------------------|-----|------
-----------------------|-----|--|------------------------|-----|------
-----------------------|-----|--|------------------------|-----|------
-----------------------|-----|--|------------------------|-----|------





                                    


e   e   e   q   q  e     w      e  e  e  q  q  e     q  H     e  e


                                                                           


----------------8--5--|--19--|--7--7--7--5--------|--------|--7--7----
17--17--17--15--------|------|--------------8--5--|--6--5--|----------
----------------------|------|--------------------|--------|----------
----------------------|------|--------------------|--------|----------
----------------------|------|--------------------|--------|----------
----------------------|------|--------------------|--------|----------





                                    


e  q  q  e     q  q  q     q  e  e  Q  q     e  q  h     e  e  e


                                                                           


7--5--------|-----------|--r--------3-----|-----------|-----5---------
------8--5--|--5--------|--e--6--6-----5--|--5--6-----|--8-----8------
------------|-----4--5--|--s--------------|-----------|---------------
------------|-----------|--t--------------|--------7--|---------------
------------|-----------|-----------------|-----------|---------------
------------|-----------|-----------------|-----------|---------------





                                    


e  e  e  q     e   e   e   q   q   H      H      e  e  e  q  e


                                                                           


5-----5-----|--12--12--12--10----------|--19--|--8--8--8--7--5--|-----
---8-----8--|------------------13--12--|------|-----------------|-----
------------|--------------------------|------|-----------------|-----
------------|--------------------------|------|-----------------|-----
------------|--------------------------|------|-----------------|-----
------------|--------------------------|------|-----------------|-----





                                    


H     e  e  e  q  e     H     H     Q  Q     q  e  q  e     H  e


                                                                           


---|-----------------|-----|-----|--5--7--|--8--5--7--8--|--7--8------
---|--5--5--5--3-----|--3--|--3--|--------|--------------|------------
7--|--------------5--|-----|-----|--------|--------------|------------
---|-----------------|-----|-----|--------|--------------|------------
---|-----------------|-----|-----|--------|--------------|------------
---|-----------------|-----|-----|--------|--------------|------------





                                    


   H     Q  e  q     W     H     H     H     Q  e  q     e  W


                                                                           


|--7--|--5--7--5--|-----|-----|-----|-----|--5--7--5--|--r-----|------
|-----|-----------|--6--|--5--|--3--|--3--|-----------|--e--6--|------
|-----|-----------|-----|-----|-----|-----|-----------|--s-----|------
|-----|-----------|-----|-----|-----|-----|-----------|--t-----|------
|-----|-----------|-----|-----|-----|-----|-----------|--------|------
|-----|-----------|-----|-----|-----|-----|-----------|--------|------





                                    


qhiqd h likeqsoql dreqm q eq ....q  w     H     q  e  e  q     q


                                                                           


---------|--7--5--|-----------|--------|-----|--------------|---------
---5--6--|--------|-----------|--5--3--|--5--|--3-----------|--3------
7--------|--------|-----------|--------|-----|--------------|---------
---------|--------|-----5--7--|--------|-----|--------2--3--|---------
---------|--------|--8--------|--------|-----|-----5--------|---------
---------|--------|-----------|--------|-----|--------------|---------





                                    


q  q     Q  e  q     q  q  e  e     h  e     H     Q  e  q     H


                                                                           


------|-----------|--0-----------|-----0--|-----|-----------|---------
1--0--|--1--1--3--|-----------0--|--3-----|--3--|--1--3--1--|--0------
------|-----------|-----2--2-----|--------|-----|-----------|---------
------|-----------|--------------|--------|-----|-----------|---------
------|-----------|--------------|--------|-----|-----------|---------
------|-----------|--------------|--------|-----|-----------|---------





                                    


   H     H     h  e  e           e  e  e  e  e  e     W


                                                                           


|-----|--0--|-----------|-----|--------------------|-----|------------
|--0--|-----|--3--------|-----|--------------------|-----|------------
|-----|-----|-----------|-----|--------------------|-----|------------
|-----|-----|-----0--2--|--3--|--------------0--2--|--3--|------------
|-----|-----|-----------|-----|--------0--2--------|--2--|------------
|-----|-----|-----------|-----|--0--1--------------|-----|------------





                                    


qarq- hy - iqg qlos -qerq, ho genq -wly ..H     q  e  e  q     q


                                                                           


---0--1--|--7--5--|-----------|--------|-----|--------------|---------
3--------|--------|-----------|--5--3--|--5--|--3-----------|--3------
---------|--------|--------2--|--------|-----|--------------|---------
---------|--------|--3--5-----|--------|-----|--------2--3--|---------
---------|--------|-----------|--------|-----|-----5--------|---------
---------|--------|-----------|--------|-----|--------------|---------





                                    


q  q     e  e  e  e  e  e     e  e  e  e  q     e  H  e     H


                                                                           


------|--r-----------------|--------------r--|--r-----0--|-----|------
1--0--|--e-----------------|--------------e--|--e--3-----|--3--|------
------|--s-----------------|--2--0--------s--|--s--------|-----|------
------|--t--------------0--|--------3--2--t--|--t--------|-----|------
------|-----0--0--2--3-----|-----------------|-----------|-----|------
------|--------------------|-----------------|-----------|-----|------





                                    


e  e  e  e  e  e     H     H     e  e  e  e  q     H  e     H


                                                                           


------------------|-----|-----|--r--------------|--------|-----|------
------------------|-----|-----|--e--------------|--------|-----|------
------------------|-----|-----|--s--------------|--------|-----|------
---------2--2--3--|--0--|-----|--t-----------2--|--3--2--|--3--|------
0--2--3-----------|-----|--2--|-----0--2--3-----|--------|-----|------
------------------|-----|-----|-----------------|--------|-----|------





                                    


e  e  e  e  e  e     W     170     e   e   q   q   q      q   q


                                                                           


------------------|-----|-----||---12--14--16--12--14--|--16--12------
------------------|-----|-----||-----------------------|--------------
------------------|-----|-----||*----------------------|--------------
---------------2--|--3--|-----||*----------------------|--------------
------0--2--3-----|--2--|-----||-----------------------|--------------
0--1--------------|-----|-----||-----------------------|--------------





                                    


h      e   e   q   q   q      q   q   h      e   e   q   q   q


                                                                           


14--|--12--14--16--12--14--|--21--12--14--|--12--14--16--12--14--|----
----|----------------------|--------------|----------------------|----
----|----------------------|--------------|----------------------|----
----|----------------------|--------------|----------------------|----
----|----------------------|--------------|----------------------|----
----|----------------------|--------------|----------------------|----





                                    


q   e   e   q   e   e      q   e   e   e   e   e   e      e   e


                                                                           


16--12------------------|------16--14--12--------------|--------------
--------16--14--12------|------------------16--14--12--|--------------
--------------------14--|--13--------------------------|--14--13------
------------------------|------------------------------|--------------
------------------------|------------------------------|--------------
------------------------|------------------------------|--------------





                                    


q   6x  E   e   q   w


                                                                           


r---||----------14--16------------------------------------------------
e---||--14--14--------------------------------------------------------
s--*||----------------------------------------------------------------
t--*||----------------------------------------------------------------
----||----------------------------------------------------------------
----||----------------------------------------------------------------



Important: The song above is NOT stored on the Chordie server. The original song is hosted at www.geocities.com. Chordie works as a search engine and provides on-the-fly formatting. Chordie does not index songs against artists'/composers' will. To remove this song please click here.

This song is displayed as text-only. Transposing and tuning is only available for chordpro-songs.

Login - add to songbook

Rating click stars to rate

Layout
Accuracy

SHARE PAGE  




You need to log in to post comments