Guitar Tabs, Chords and Lyrics


Yesterday Is Here   Yes


||---5--------5--------10----------12----------|--5--------5----------
||------7--------7---------12----------14------|-----7--------7-------
||*--------9--------9----------14----------16--|--------9--------9----
||*--------------------------------------------|----------------------
||---0-----------------------------------------|--0-------------------
||---------------------------------------------|----------------------
10----------12--|--5--------5--------10----------12----------|--2-----
----12------14--|-----7--------7---------12----------14------|--------
--------14--16--|--------9--------9----------14----------16--|--------
----------------|--------------------------------------------|--4-----
----------------|--0-----------------------------------------|--------
----------------|--------------------------------------------|--------
------4--------||------5--------------10---------12------|-----5------
3--------5-----||------7-----7---------------------------|-----7------
---4--------4--||*--------------6---------11---------13--|------------
------6--------||*-----4--------4---------9----------11--|-----4------
---------------||---0--------------0---------------------|--0---------
---------------||---------0-------------------0----------|------------
------------10------12------|-----5--------------10---------12--------
---7------------------------|-----7-----5-----------------------------
------6---------11------13--|--------------6---------11---------13----
------4---------9-------11--|-----4--------4---------9----------11----
---------0------------------|--0--------------0-----------------------
0-------------------0-------|--------0-------------------0------------
1--|-------------------------------||--2------------------------------
---|-----10------12---------5------||---------------10----------8-----
---|------------------------7-----*||-----7-------------9-------------
---|---------11------13-----------*||--------7----------11------------
---|---------9-------11-----4--4---||-----------12----------10--------
---|--0------------------0---------||--------9------------------------
---------------------|------------------------------------|--14-------
------5--------3-----|------10----------8-----5-----------|-----------
7--------4--------2--|----------9----------7-----4-----4--|-----------
9--------6--------4--|----------11---------9-----6-----6--|-----------
---7--------5--------|--12----------10--------7-----------|-----------
---------------------|------------------------------0-----|-----------
17--14--12--15--12--9--12--9--7--10--7--|--2--5--2--3--6--3--4--7-----
----------------------------------------|-----------------------------
----------------------------------------|-----------------------------
----------------------------------------|-----------------------------
----------------------------------------|-----------------------------
----------------------------------------|-----------------------------
4--7--|--4-5--------------------------------|--4-5--------------------
------|--6-7--------------------------------|--6-7--------------------
------|--5/6--------------------------------|--5/6--------------------
------|--6-7--------------------------------|--6-7--4--2--4--2--------
------|-------4--0--2--0--------------------|-------------------4-----
------|-------------------2--0--2--0--2--0--|-------------------------
---------------|--4-5-------------------------------------------------
---------------|--6-7-------------------------------------------------
---------------|--5/6--2--2--2--------2--2--------------------2--2----
---------------|--6-7-----------4--2--------4--4--2--2--4--2----------
0--2--0--2--4--|------------------------------------------------------
---------------|------------------------------------------------------
--------------------------|-----5--------------10---------12----------
--------------------------|-----7-----7-------------------------------
--------------------------|--------------6---------11---------13------
4--4--2--2----------------|-----4--------4---------9----------11------
------------3p0-----------|--0--------------0-------------------------
-----------------0--2--4--|--------0-------------------0--------------
---17----------------10------12------|-----17----------------10-------
---19-----19-------------------------|-----19-----19------------------
--------------18---------11------13--|----------------18--------------
---16---------16---------9-------11--|-----16---------16--------------
0-----------------0------------------|--0-----------------0-----------
-------0---------------------0-------|---------0----------------------
-------12------|-------------------------------------|----------------
---------------|-----7--------9------10--------------|----------------
11---------13--|--------7--------9-------9-------9---|--2p0---p-------
9----------11--|-------------------------11------11--|-------2-1------
---------------|--------9--------11--12--------------|----------------
----0----------|--7--------0-----------------12------|----------------
------------------------------------|---------------------------------
------------------------------------|---------------------------------
p-----------------------------------|--------------------------6------
-0-----2---h---0--------------------|--------------7--6--5--4---------
----3-----3-4-----3--0--2--0--------|--7--6--5--4---------------------
------------------------------2--0--|---------------------------------
---------------------|-----5--------------10---------12---------17----
---------7--6--7--6--|-----7-----7------------------------------19----
5--4-----------------|--------------6---------11---------13-----------
------7--------------|-----4--------4---------9----------11-----16----
---------------------|--0--------------0---------------------0--------
---------------------|--------0-------------------0-------------------
--------------10------12------|--12--11--10------10--12--10--11-------
---19-------------------------|--------------13-----------------------
-------18---------11------13--|---------------------------------------
-------16---------9-------11--|---------------------------------------
-----------0------------------|---------------------------------------
0---------------------0-------|---------------------------------------
10------10--12--10--11--10--|--11--10------10-------------------------
----13----------------------|----------13------13------10------10-----
----------------------------|----------------------12------12---------
----------------------------|-----------------------------------------
----------------------------|-----------------------------------------
----------------------------|-----------------------------------------
-----------------------|-----5--------------10---------12-------------
-----------------------|-----7-----7----------------------------------
12--9------------------|--------------6---------11---------13---------
-------12--10------12--|-----4--------4---------9----------11---------
---------------12------|--0--------------0---------------------0------
-----------------------|--------0-------------------0-----------------
17----------------10------12------|--0--0--|--------------------------
19-----19-------------------------|--3--2--|-----------8\7------------
-----------18---------11------13--|--0--0--|--------6-----------------
16---------16---------9-------11--|--2--2--|-----5--------------------
---------------0------------------|--0--0--|--4-------------3--2------
----0---------------------0-------|--------|--------------------------
--------------||------5--------------10---------12------|-----5-------
------6\5-----||------7-----7---------------------------|-----7-------
---4----------||*--------------6---------11---------13--|-------------
3-------------||*-----4--------4---------9----------11--|-----4-------
-----------1--||---0--------------0---------------------|--0----------
--------------||---------0-------------------0----------|--------0----
---------10------12------|-----5--------------10---------12------|----
7------------------------|-----7-----5---------------------------|----
---6---------11------13--|--------------6---------11---------13--|----
---4---------9-------11--|-----4--------4---------9----------11--|----
------0------------------|--0--------------0---------------------|----
-----------------0-------|--------0-------------------0----------|----
---10---------12---------5---------||--2------------------------------
-------------------------7---------||---------------10----------8-----
-------11---------13--------------*||-----7-------------9-------------
-------9----------11-----4-----4--*||--------7----------11------------
0---------------------0------------||-----------12----------10--------
-----------0----------------0------||--------9------------------------
---------------------|------------------------|-----0-----------------
------5--------3-----|------10----------8-----|-----0-----3--0--------
7--------4--------2--|----------9----------7--|-----1-----1--1--------
9--------6--------4--|----------11---------9--|--------------0--------
---7--------5--------|--12----------10--------|--------2--------------
---------------------|------------------------|--0--------------0-----
---------|-----0-----------------------|------------------------------
2--0-----|-----0-----3--0-----2--0-----|------------------------------
1--1-----|-----1-----1--1-----1--1-----|------------------------------
0-----0--|--------------0-----0-----0--|--2p0-----2p0-----2p0---------
---------|--------2--------------------|-------2-------2-------2------
---------|--0--------------0-----------|------------------------------
----------------|--10--9--10--9--7------7------7/9-------|--14--12----
----------------|-------------------10-----10------------|------------
----------------|----------------------------------------|------------
2p0-----2-------|----------------------------------------|------------
-----2-------0--|-------------------------------------0--|------------
-----------4h---|-----------------------------------4h---|------------
14--12------------------------------|--17--14--17--14----------17-----
--------14--10--12--10--12/14-------|------------------17--14---------
------------------------------------|---------------------------------
------------------------------------|---------------------------------
---------------------------------0--|---------------------------------
-------------------------------4h---|---------------------------------
14------|----------------------14--17--14----------|------------------
----17--|------14--------------------------17--14--|------------------
--------|--16------16--14--------------------------|------------------
--------|------------------14----------------------|----------12------
--------|------------------------------------------|------12----------
--------|------------------------------------------|--14--------------
----------------------------------------------------|-----------------
--------------------------------------------15--14--|--12--14--15-----
--------------------13--11------11--13--14----------|-----------------
11------11--12--14----------14----------------------|-----------------
----14----------------------------------------------|-----------------
----------------------------------------------------|-----------------
12--14--16--17--|--12--4-5--||----------------------------------------
----------------|--10--6-7--||----------------------------------------
----------------|--11--5/6--||----------------------------------------
----------------|--11--6-7--||----------------------------------------
----------------|--------0--||----------------------------------------
----------------|-----------||----------------------------------------



Important: The song above is NOT stored on the Chordie server. The original song is hosted at www.geocities.com. Chordie works as a search engine and provides on-the-fly formatting. Chordie does not index songs against artists'/composers' will. To remove this song please click here.

This song is displayed as text-only. Transposing and tuning is only available for chordpro-songs.

Login - add to songbook

Rating click stars to rate

Layout
Accuracy

SHARE PAGE  




You need to log in to post comments