Guitar Tabs, Chords and Lyrics


Yesterday Is Here   Yes


|--------------------------------------|--------------------------------
|--------------------------------------|--------------------------------
|--------------------------------------|--------------------------------
|--------------------------------------|--------------------------------
|--------------------------------------|--------------------------------
|--0--2--3--0--2--3--0--2--3--0--2--3--|--------------------------------
------------------------------------|-----------------------------------
------------------------------------|-----------------------------------
------------------------------------|-----------------------------------
------------------------------------|-----------------------------------
------------------------------------|-----------------------------------
0--2--3--0--2--3--0--2--3--0--2--3--|-----------------------------------
------------------------------------|-----------------------------------
------------------------------------|-----------------------------------
------------------------------------|-----------------------------------
------------------------------------|-----------------------------------
------------------------------------|-----------------------------------
0--2--3--0--2--3--0--2--3--0--2--3--|-----------------------------------
------------------------------------|-----------------------------------
------------------------------------|-----------------------------------
------------------------------------|-----------------------------------
------------------------------------|-----------------------------------
------------------------------------|-----------------------------------
0--2--3--0--2--3--0--2--3--0--2--3--|-----------------------------------
------------------------------------|-----------------------------------
------------------------------------|-----------------------------------
------------------------------------|-----------------------------------
------------------------------------|-----------------------------------
------------------------------------|-----------------------------------
0--2--3--0--2--3--0--2--3--0--2--3--|-----------------------------------
------------------------------------|-----------|-----------|-----------
------------------------------------|-----------|-----------|-----------
------------------------------------|-----------|-----------|-----------
------------------------------------|-----------|-----------|-----------
------------------------------------|-----------|-----------|-----------
0--2--3--0--2--3--0--2--3--0--2--3--|--0--2--3--|--0--2--3--|-----------
---------|--------------------------------------------------------------
---------|--------------------------------------------------------------
---------|--------------------------------------------------------------
---------|--------------------------------------------------------------
0--2--3--|--------------------------------------------------------------
---------|--------------------------------------------------------------
---21--21--20--20--19--19--18--18--17--17--16--16--15--15--14--14-------
------------------------------------------------------------------------
------------------------------------------------------------------------
------------------------------------------------------------------------
0-----------------------------------------------------------------------
------------------------------------------------------------------------
13--13--12--12--11--11-----|-----------|-----------|-----------|--------
---------------------------|-----------|-----------|-----------|--------
---------------------------|-----------|-----------|-----------|--------
---------------------------|-----------|-----------|-----------|--------
---------------------------|-----------|-----------|--0--2--3--|--------
---------------------------|--0--2--3--|--0--2--3--|-----------|--------
---------|--12--14--15--12--14--15--0--2--3--0--2--3--|-----------------
---------|--------------------------------------------|-----------------
---------|--------------------------------------------|-----------------
---------|--------------------------------------------|-----------------
0--2--3--|--------------------------------------------|-----------------
---------|--------------------------------------------|-----------------
------------------------------------|-----------|-----------|-----------
------------------------------------|-----------|-----------|-----------
------------------------------------|-----------|-----------|-----------
2--4--5--2--4--5--------------------|-----------|-----------|-----------
------------------------------------|-----------|-----------|-----------
------------------0--2--3--0--2--3--|--2--4--5--|--2--4--5--|-----------
---------|-----|--------------------------------------------------------
---------|-----|--------------------------------------------------------
---------|-----|--------------------------------------------------------
---------|-----|--------------------------------------------------------
2--4--5--|--2--|--------------------------------------------------------
---------|-----|--------------------------------------------------------





                                    


not sure about this bar


                                                                             


12--12--14--14--12--12--14--14--12--12--------------|-----------|-------
----------------------------------------14--14------|-----------|-------
------------------------------------------------11--|-----------|-------
----------------------------------------------------|-----------|-------
----------------------------------------------------|-----------|-------
----------------------------------------------------|--2--4--5--|-------
---------|-----------|-----------|--------------------------------------
---------|-----------|-----------|--------------------------------------
---------|-----------|-----------|--------------------------------------
---------|-----------|-----------|--------------------------------------
---------|--2--4--5--|--2--4--5--|--------------------------------------
2--4--5--|-----------|-----------|--------------------------------------
14--16--17--14--16--17--2--4--5--2--4--5--|-----------------------------
------------------------------------------|-----------------------------
------------------------------------------|-----------------------------
------------------------------------------|-----------------------------
------------------------------------------|-----------------------------
------------------------------------------|-----------------------------
------------------------------------|-----------|-----------|-----------
------------------------------------|-----------|-----------|-----------
------------------------------------|--0--2--3--|--0--2--3--|-----------
4--6--7--4--6--7--------------------|-----------|-----------|-----------
------------------------------------|-----------|-----------|-----------
------------------2--4--5--2--4--5--|-----------|-----------|-----------
------3--|-----------|-----------|--------3--|--1--3--5--|--------------
1--3-----|-----------|-----------|--1--3-----|-----------|--------------
---------|--0--2--3--|--0--2--3--|-----------|-----------|--------------
---------|-----------|-----------|-----------|-----------|--------------
---------|-----------|-----------|-----------|-----------|--------------
---------|-----------|-----------|-----------|-----------|--------------
13--15--17--|--15--17--18--15--17--18--3--5--6--3--5--6--|--------------
15--17--18--|--------------------------------------------|--------------
------------|--------------------------------------------|--------------
------------|--------------------------------------------|--------------
------------|--------------------------------------------|--------------
------------|--------------------------------------------|--------------
------------------------------------|-----------------------------------
------------------------------------|-----------------------------------
------------------------------------|-----------------------------------
5--7--8--5--7--8--------------------|-----------------------------------
------------------------------------|-----------------------------------
------------------3--5--6--3--5--6--|-----------------------------------
14--16--17--14--16--17--2--4--5--2--4--5--|-----------------------------
------------------------------------------|-----------------------------
------------------------------------------|-----------------------------
------------------------------------------|-----------------------------
------------------------------------------|-----------------------------
------------------------------------------|-----------------------------
------------------------------------|-----------------------------------
------------------------------------|-----------------------------------
------------------------------------|-----------------------------------
4--6--7--4--6--7--------------------|-----------------------------------
------------------------------------|-----------------------------------
------------------2--4--5--2--4--5--|-----------------------------------
12--14--15--12--14--15--0--2--3--0--2--3--|-----------------------------
------------------------------------------|-----------------------------
------------------------------------------|-----------------------------
------------------------------------------|-----------------------------
------------------------------------------|-----------------------------
------------------------------------------|-----------------------------
------------------------------------|-----------------------------------
------------------------------------|-----------------------------------
------------------------------------|-----------------------------------
2--4--5--2--4--5--------------------|-----------------------------------
------------------------------------|-----------------------------------
------------------0--2--3--0--2--3--|-----------------------------------
12--14--15--12--14--15--12--14--15--12--14--15--|-----------------------
------------------------------------------------|-----------------------
------------------------------------------------|-----------------------
------------------------------------------------|-----------------------
------------------------------------------------|-----------------------
------------------------------------------------|-----------------------
12--14--15--12--14--15--12--14--15--12--14--16--|--12--|----------------
------------------------------------------------|------|----------------
------------------------------------------------|------|----------------
------------------------------------------------|------|----------------
------------------------------------------------|------|----------------
------------------------------------------------|------|----------------





                                    


                                            100


                                                                             


----------------|------|-----|-----|-----|--14-----11-----9---|---------
16--14--12--14--|--12--|-----|-----|-----|--14-----11-----9---|---------
----------------|------|-----|-----|-----|--15-----12-----10--|---------
----------------|------|-----|-----|-----|--------------------|---------
----------------|------|-----|-----|-----|--------------------|---------
----------------|------|-----|-----|-----|--------------------|---------
--------------|------------------------|--------------------|-----------
---11-----9---|------------------------|--------------------|-----------
---10-----8---|------------------------|--9-----------------|-----------
---12-----10--|------9--12------9--12--|-----10-------------|-----------
--------------|--10---------10---------|------------12------|-----------
--------------|------------------------|----------------12--|-----------
------------------------------------------|-----------------------------
------------------------------------------|-----------------------------
11-----11---------------------------------|-----------------------------
-----------12-----12--9-----9-------------|-----------------------------
-------------------------------10--7--10--|-----------------------------
------------------------------------------|-----------------------------
----------------------7--8--|--7-----------------3--|-------------------
8--8--8---------------------|-----8-----5-----5-----|-------------------
---------9------------------|--------------5--------|-------------------
---------------10--7--------|-----------------------|-------------------
----------------------------|-----------------------|-------------------
----------------------------|-----------------------|-------------------





                                    


107


                                                                             


8--5-----------|--10--8--7--------|--12--10--8--12--|-------------------
---------6-----|------------8--5--|-----------------|-------------------
------------7--|------------------|-----------------|-------------------
---------------|------------------|-----------------|-------------------
---------------|------------------|-----------------|-------------------
---------------|------------------|-----------------|-------------------





                                    


                                      [111]                                        


14-----11-----9---|----------------|-----------------------------|------
14-----11-----9---|-----11-----9---|-----------------------------|------
15-----12-----10--|-----10-----8---|--5--4--2--5--4--2--5--4--2--|------
------------------|-----12-----10--|-----------------------------|------
------------------|----------------|-----------------------------|------
------------------|----------------|-----------------------------|------
---------------|--12--14--15--|--12--14--16--12-----|-------------------
---------------|--------------|---------------------|-------------------
---------------|--------------|---------------------|-------------------
5--4--2--------|--------------|---------------------|-------------------
---------------|--------------|---------------------|-------------------
---------------|--------------|---------------------|-------------------
-----------------------|-----|----------------------------------|-------
16--14-----12--14--12--|-----|--------------12--------------14--|-------
-----------------------|-----|--13--------------14--11----------|-------
-----------------------|-----|------14------------------13------|-------
-----------------------|-----|----------14----------------------|-------
-----------------------|-----|----------------------------------|-------
----------------------------------------|-----|-----|-------------------
12----------14----------16----------17--|-----|-----|-------------------
----13----------14----------16----------|-----|-----|-------------------
--------14----------16----------18------|-----|-----|-------------------
----------------------------------------|-----|-----|-------------------
----------------------------------------|-----|-----|-------------------
--------------------------------|---------------------------------------
----------------------------17--|---------------------------------------
16----------19--17--------------|---------------------------------------
----17--------------19--16------|---------------------------------------
--------19----------------------|---------------------------------------
--------------------------------|---------------------------------------
----------------------------------------|-----|-----|-------------------
15----------17----------19----------20--|-----|-----|-------------------
----16----------17----------19----------|-----|-----|-------------------
--------17----------19----------21------|-----|-----|-------------------
----------------------------------------|-----|-----|-------------------
----------------------------------------|-----|-----|-------------------
------------19----------------------|-----------------------------------
17--19--20------20--19--17----------|-----------------------------------
----------------------------19--18--|-----------------------------------
------------------------------------|-----------------------------------
------------------------------------|-----------------------------------
------------------------------------|-----------------------------------
------------14----------------------|-----------------------------------
----14--15------15--14--12--13--12--|-----------------------------------
16----------------------------------|-----------------------------------
------------------------------------|-----------------------------------
------------------------------------|-----------------------------------
------------------------------------|-----------------------------------





                                    


                                                    168


                                                                             


--------12--10----------------------|------------|--7--8--10--|---------
10--13----------13--12--10----------|---------8--|------------|---------
----------------------------12--11--|--9--11-----|------------|---------
------------------------------------|------------|------------|---------
------------------------------------|------------|------------|---------
------------------------------------|------------|------------|---------
14--15--|--19--19--19--19------|-----------------|----------------------
--------|----------------------|-----20--19--17--|----------------------
--------|------------------16--|-----------------|----------------------
--------|----------------------|-----------------|----------------------
--------|----------------------|-----------------|----------------------
--------|----------------------|-----------------|----------------------
------------------------|--17----------------------|--------------------
------------------------|--------------------------|--------------------
16--------------16------|------17--16--------------|--------------------
----16--19--17------19--|--------------------------|--------------------
------------------------|--------------14--17--14--|--------------------
------------------------|--------------------------|--------------------
----------------------------------------|-------------------------------
----------------------------------------|-------------------------------
--------14------12--14--12--11----------|-------------------------------
----14------16------------------14--12--|-------------------------------
15--------------------------------------|-------------------------------
----------------------------------------|-------------------------------





                                    


                                       [176]                                       


------------------------------------|------------------------------|----
------------12----------------------|------------------------------|----
----11--12------12--11--------------|--------------11--------------|----
14----------------------14--12--11--|------11--12------12--11------|----
------------------------------------|--14----------------------14--|----
------------------------------------|------------------------------|----
------------------------------------------------|------------|----------
------------------------------------------------|------------|----------
------------------------------------------------|------------|----------
10----------10----------10----------------------|------------|----------
----14--12------14--12------14--12--10----------|-----9--10--|----------
----------------------------------------14--12--|------------|----------
------|-----------------------------|-----------------------|-----------
------|-----------------------------|-----------------------|-----------
------|-----------------------------|-----------------------|-----------
------|--------5--9--5--------------|-----------4-----------|-----------
------|--7--9-----------9--7--5-----|-----4--5-----5--4--2--|-----------
7-----|--------------------------9--|--7--------------------|-----------





                                    


                                       183


                                                                             


------------------------------------|--------15--17-----19-----|--------
------------------------------------|--------------------------|--------
------------------------------------|--------------------------|--------
------------------------------------|--------------------------|--------
3--2--0--3--2--0--3--2--0-----------|--------------------------|--------
---------------------------3--2--0--|--------------------------|--------
--------17--------------------------------------------------------------
19--20------20--19-----17-------------15--------------------------------
------------------------------16--17-----------------14--14-------------
---------------------------------------------16--17----------17--14-----
------------------------------------------------------------------------
------------------------------------------------------------------------





                                    


            185


                                                                             


---------|-------------------------------------|------------------------
---------|--------------12---------------------|------------------------
---------|----------12------12--11--9----------|------------------------
---------|--14--16---------------------12--11--|------------------------
---------|-------------------------------------|------------------------
---------|-------------------------------------|------------------------
---------------------------------|--------------------------------|-----
---------------------------------|--------------------------------|-----
-----------11--------------------|---------9--7-------------------|-----
9--11--12------12--11--9--10--9--|--7--10--------10--9--7---------|-----
---------------------------------|-------------------------10--9--|-----
---------------------------------|--------------------------------|-----





                                    


            189


                                                                             


---------|--7--7--7--7--7--7--7--8--10--|--14--|-----|-----|-----|------
---7--8--|------------------------------|------|-----|-----|-----|------
9--------|------------------------------|------|-----|-----|-----|------
---------|------------------------------|------|-----|-----|-----|------
---------|------------------------------|------|-----|-----|-----|------
---------|------------------------------|------|-----|-----|-----|------





                                    


      230


                                                                             


---|--------------------------------------|-----------------------------
---|--------------------------------------|-----------------------------
---|--------------------------------------|-----------------------------
---|--------------------------------------|-----------------------------
---|--------------------------------------|-----------------------------
---|--0--2--3--0--2--3--0--2--3--0--2--3--|-----------------------------
------------------------------------|-----------------------------------
------------------------------------|-----------------------------------
------------------------------------|-----------------------------------
------------------------------------|-----------------------------------
------------------------------------|-----------------------------------
0--2--3--0--2--3--0--2--3--0--2--3--|-----------------------------------
------------------------------------|-----------------------------------
------------------------------------|-----------------------------------
------------------------------------|-----------------------------------
------------------------------------|-----------------------------------
------------------------------------|-----------------------------------
0--2--3--0--2--3--0--2--3--0--2--3--|-----------------------------------
------------------------------------|-----------------------------------
------------------------------------|-----------------------------------
------------------------------------|-----------------------------------
------------------------------------|-----------------------------------
------------------------------------|-----------------------------------
0--2--3--0--2--3--0--2--3--0--2--3--|-----------------------------------
------------------------------------|-----------------------------------
------------------------------------|-----------------------------------
------------------------------------|-----------------------------------
------------------------------------|-----------------------------------
------------------------------------|-----------------------------------
0--2--3--0--2--3--0--2--3--0--2--3--|-----------------------------------
------------------------------------|-----------------------------------
------------------------------------|-----------------------------------
------------------------------------|-----------------------------------
------------------------------------|-----------------------------------
------------------------------------|-----------------------------------
0--2--3--0--2--3--0--2--3--0--2--3--|-----------------------------------





                                    


[236]                                                                              


14--16--17--2--4--5--------------------|--------------------------------
---------------------------------------|--------------------------------
---------------------------------------|--------------------------------
---------------------4--6--7-----------|--------------------------------
---------------------------------------|--------------------------------
------------------------------2--4--5--|--------------------------------
---------2--4--5--14--16--17--2--4--5--|--------------------------------
---------------------------------------|--------------------------------
---------------------------------------|--------------------------------
4--6--7--------------------------------|--------------------------------
---------------------------------------|--------------------------------
---------------------------------------|--------------------------------
15--17--18--3--5--6--------------------|--------------------------------
---------------------------------------|--------------------------------
---------------------------------------|--------------------------------
---------------------5--7--8-----------|--------------------------------
---------------------------------------|--------------------------------
------------------------------3--5--6--|--------------------------------
---------3--5--6--15--17--18--3--5--6--|--------------------------------
---------------------------------------|--------------------------------
---------------------------------------|--------------------------------
5--7--8--------------------------------|--------------------------------
---------------------------------------|--------------------------------
---------------------------------------|--------------------------------
15--17--18--3--5--6--15--17--18--3--5--6--|-----------------------------
------------------------------------------|-----------------------------
------------------------------------------|-----------------------------
------------------------------------------|-----------------------------
------------------------------------------|-----------------------------
------------------------------------------|-----------------------------





                                    


[241]                                                                              


15--17--18--3--5--6--15--17--18--3--5--6--|-----|-----|-----|-----------
------------------------------------------|-----|-----|-----|-----------
------------------------------------------|-----|-----|-----|-----------
------------------------------------------|-----|-----|-----|-----------
------------------------------------------|-----|-----|-----|-----------
------------------------------------------|-----|-----|-----|-----------
--------------------------------|---------------------------------------
------------12--------------14--|---------------------------------------
13--------------14--11----------|---------------------------------------
----14------------------13------|---------------------------------------
--------14----------------------|---------------------------------------
--------------------------------|---------------------------------------
----------------------------------------|-----|-------------------------
12----------14----------16----------17--|-----|-------------------------
----13----------14----------16----------|-----|-------------------------
--------14----------16----------18------|-----|-------------------------
----------------------------------------|-----|-------------------------
----------------------------------------|-----|-------------------------
--------------------------------|---------------------------------------
----------------------------17--|---------------------------------------
16----------19--17--------------|---------------------------------------
----17--------------19--16------|---------------------------------------
--------19----------------------|---------------------------------------
--------------------------------|---------------------------------------
----------------------------------------|-----|-----|-------------------
15----------17----------19----------20--|-----|-----|-------------------
----16----------17----------19----------|-----|-----|-------------------
--------17----------19----------21------|-----|-----|-------------------
----------------------------------------|-----|-----|-------------------
----------------------------------------|-----|-----|-------------------





                                    


268


                                                                             


--------------------------------|-----|---------------------------------
--------------------------------|-----|---------------------------------
--------------------------------|-----|---------------------------------
13--12--10----------------------|-----|---------------------------------
------------13--12--10----------|-----|---------------------------------
------------------------13--11--|-----|---------------------------------
10--12--14--10--12--14--10--|-----------20-----19-----|-----------------
----------------------------|-------------------------|-----------------
----------------------------|-------------------------|-----------------
----------------------------|-------------------------|-----------------
----------------------------|-------------------------|-----------------
----------------------------|-------------------------|-----------------
20--19--17--19--17--15--|-----|-----|-----------------------------------
------------------------|-----|-----|-----------------------------------
------------------------|-----|-----|-----------------------------------
------------------------|-----|-----|-----------------------------------
------------------------|-----|-----|-----------------------------------
------------------------|-----|-----|-----------------------------------
------------------------------------------|----------------------|------
------------------------------------------|----------------------|------
------------------------------------------|----------------------|------
------------------------10----------------|--12-----12--8-----8--|------
----10--13------10--13------11------------|----------------------|------
11----------11---------------------13--8--|----------------------|------





                                    


                         [279]                                                     


----------------------|-------------------------------|-----------------
----------------------|-------------------------8--9--|-----------------
----------------------|--8--8--8----------------------|-----------------
----------------------|-----------10------------------|-----------------
10-----10-------------|------------------11--8--------|-----------------
-----------11-----11--|-------------------------------|-----------------





                                    


                           281


                                                                             


------------------------|-------------------|-------------------|-------
8-----------------------|--9----------------|--11--9--8---------|-------
---8-----------------8--|-----10------------|------------8------|-------
------10------10--------|------------11--8--|---------------10--|-------
----------11------------|-------------------|-------------------|-------
------------------------|-------------------|-------------------|-------
8--6-----8--6-----|--8--|-----|--11--10------|--------------------------
------9--------9--|-----|-----|----------11--|--------------------------
------------------|-----|-----|--------------|--------------------------
------------------|-----|-----|--------------|--------------------------
------------------|-----|-----|--------------|--------------------------
------------------|-----|-----|--------------|--------------------------
8-------------------|---------8--10--11--13--15--18--------18--|--------
---11-----9---------|--8--11-----------------------------------|--------
----------------10--|------------------------------------------|--------
--------------------|------------------------------------------|--------
--------------------|------------------------------------------|--------
--------------------|------------------------------------------|--------
20--18--18--16-----15--16-----13--15-----16--|--------------------------
---------------------------------------------|--------------------------
---------------------------------------------|--------------------------
---------------------------------------------|--------------------------
---------------------------------------------|--------------------------
---------------------------------------------|--------------------------





                                    


290


                                                                             


18-----20--18-----16-----------------|----------------------------------
----------------------20-----16------|----------------------------------
---------------------------------17--|----------------------------------
-------------------------------------|----------------------------------
-------------------------------------|----------------------------------
-------------------------------------|----------------------------------
------------15--16-----16--15--13-------------|-------------------------
----16--18----------------------------14------|-------------------------
18----------------------------------------15--|-------------------------
----------------------------------------------|-------------------------
----------------------------------------------|-------------------------
----------------------------------------------|-------------------------
---13--18--18-----16--15-----------------13--|--------------------------
-----------------------------16--13--16------|--------------------------
---------------------------------------------|--------------------------
---------------------------------------------|--------------------------
---------------------------------------------|--------------------------
---------------------------------------------|--------------------------
15--16--18--16--15----------------------------------|-------------------
--------------------18--16------15--16--15----------|-------------------
----------------------------17--------------15--13--|-------------------
----------------------------------------------------|-------------------
----------------------------------------------------|-------------------
----------------------------------------------------|-------------------
--------------------------------------------|---------------------------
13--12--10--13--12--10--13--12--10----------|---------------------------
------------------------------------12--11--|---------------------------
--------------------------------------------|---------------------------
--------------------------------------------|---------------------------
--------------------------------------------|---------------------------





                                    


[295]                                                                              


----------7-----------------|-----------2-----------|-------------------
-------8-----8--7--5--------|-----2--3-----3--2-----|-------------------
9--11-----------------7--6--|--4-----------------4--|-------------------
----------------------------|-----------------------|-------------------
----------------------------|-----------------------|-------------------
----------------------------|-----------------------|-------------------
---------------------------------|-----------|--------------|-----------
---------------------------------|-----------|--------------|-----------
5--4--2--5--4--2--5--4--2--------|-----------|--------------|-----------
---------------------------5--4--|--2--4--5--|--2-----4--5--|-----------
---------------------------------|-----------|--------------|-----------
---------------------------------|-----------|--------------|-----------
---------|--------------|-----------|--------------|-----------|--------
---------|--------------|-----------|--------------|--1--3--5--|--------
2--------|--------------|-----------|--------------|-----------|--------
---4--5--|--4--2-----4--|--2--4--5--|--2-----4--5--|-----------|--------
---------|--------5-----|-----------|--------------|-----------|--------
---------|--------------|-----------|--------------|-----------|--------
2--7--|-----|-----|--------------------------------------|--------------
------|-----|-----|--------------------------------------|--------------
------|-----|-----|--------------------------------------|--------------
------|-----|-----|--------------------------------------|--------------
------|-----|-----|--------------------------------------|--------------
------|-----|-----|--0--2--3--0--2--3--0--2--3--0--2--3--|--------------
------------------------------------|-----------------------------------
------------------------------------|-----------------------------------
------------------------------------|-----------------------------------
------------------------------------|-----------------------------------
------------------------------------|-----------------------------------
0--2--3--0--2--3--0--2--3--0--2--3--|-----------------------------------
------------------------------------|-----------------------------------
------------------------------------|-----------------------------------
------------------------------------|-----------------------------------
------------------------------------|-----------------------------------
------------------------------------|-----------------------------------
0--2--3--0--2--3--0--2--3--0--2--3--|-----------------------------------
------------------------------------|-----------------------------------
------------------------------------|-----------------------------------
------------------------------------|-----------------------------------
------------------------------------|-----------------------------------
------------------------------------|-----------------------------------
0--2--3--0--2--3--0--2--3--0--2--3--|-----------------------------------
------------------------------------|-----------------------------------
------------------------------------|-----------------------------------
------------------------------------|-----------------------------------
------------------------------------|-----------------------------------
------------------------------------|-----------------------------------
0--2--3--0--2--3--0--2--3--0--2--3--|-----------------------------------
------------------------------------|-----------------------------------
------------------------------------|-----------------------------------
------------------------------------|-----------------------------------
------------------------------------|-----------------------------------
------------------------------------|-----------------------------------
0--2--3--0--2--3--0--2--3--0--2--3--|-----------------------------------
------------------------------------|-----------------------------------
------------------------------------|-----------------------------------
------------------------------------|-----------------------------------
------------------------------------|-----------------------------------
------------------------------------|-----------------------------------
0--2--3--0--2--3--0--2--3--0--2--3--|-----------------------------------
------------------------------------||----------------------------------
------------------------------------||----------------------------------
------------------------------------||----------------------------------
------------------------------------||----------------------------------
------------------------------------||----------------------------------
0--2--3--0--2--3--0--2--3--0--2--3--||----------------------------------



Important: The song above is NOT stored on the Chordie server. The original song is hosted at www.geocities.com. Chordie works as a search engine and provides on-the-fly formatting. Chordie does not index songs against artists'/composers' will. To remove this song please click here.

This song is displayed as text-only. Transposing and tuning is only available for chordpro-songs.

Login - add to songbook

Rating click stars to rate

Layout
Accuracy

SHARE PAGE  




You need to log in to post comments