Guitar Tabs, Chords and Lyrics


Yesterday Is Here  Yes

E||-------------------|------------------|------------------|
B||-------------------|------------------|------------------|
G||*------------------|------------------|------------------|
D||*------------------|------------------|------------------|
A||-------------------|------------------|------------------|
E||-------------------|------------------|------------------|

                      [Am]            [G]              [F]           [E]                           
-------------------|-------------------------|----------------------|
-------------------|-------------------------|----------1~-----0~---|
-------------------|--2-------------------2~-|----0--2--------------|
--------------2----|--2--------2~---0--2--3~-|----------------------|
-------------------|-----0--2--3~------------|----------------------|
-------------------|-------------------------|----------------------|

  [Am]            [G]              [F]                       [C]                                   
-------------------------|----------------------|----------------------|
-------------------------|----0--1~---0~--------|-----------1----------|
--2-------------------2~-|----0--2~---0~---2~---|-----------0----------|
--2--------2~---0--2--3~-|-----------------3~---|--2--0h-2--2----------|
-----0--2--3~------------|----------------------|----------------------|
-------------------------|----------------------|----------------------|

  [G]                        [C]                    [E]      [E]                                  
-----------------------|-------------------------|------------------------|
-----------------------|----------------------0--|----0--0--0--0--0--0~---|
-----------------------|----------------------1--|----1--1--1--1--1--1~---|
----0--2--3--2~---0~---|-------0h2p0-----0----2--|----2--2--2--2--2--2~---|
-----------------------|--3-----------3-------2--|----2--2--2--2--2--2~---|
-----------------------|-------------------------|----0--0--0--0--0--0~---|

  [Am]            [G]              [F]           [E]            [Am]            [G]                       
-------------------------|----------------------|-------------------------|
-------------------------|----------1~-----0~---|-------------------------|
--2-------------------2~-|----0--2--------------|--2-------------------2~-|
--2--------2~---0--2--3~-|----------------------|--2--------2~---0--2--3~-|
-----0--2--3~------------|----------------------|-----0--2--3~------------|
-------------------------|----------------------|-------------------------|

  [F]                       [C]                       [G]                                      
----------------------|----------------------|-----------------------|
----0--1~---0~--------|-----------1----------|-----------------------|
----0--2~---0~---2~---|-----------0----------|-----------------------|
-----------------3~---|--2--0h-2--2----------|----0--2--3--2~---0~---|
----------------------|----------------------|-----------------------|
----------------------|----------------------|-----------------------|

  [C]            [F]        [C]      [C]                          [C]                                
-------------------------|-------------------------|--------------------|
-------------------------|-------------------------|--1~-------1~-------|
-------------------------|-------------------------|--0~-------0~-------|
-------0h2p0-----0----2--|-------------2--0--2--3--|--------------------|
--3-----------3-------3--|-------0--2--3-----------|--------------------|
-------------------------|----3--------------------|--------------------|

  [C]                         [Am]                      [Am]                                     
----0----0--0--0--0--0--|----0~------0~-------|--0----------------|
----1----1--1--1--1--1--|----1~------1~-------|--1----------------|
----0----0--0--0--0--0--|----2~------2~-------|--2----------------|
------------------------|----2~------2~-------|--2----------------|
------------------------|---------0-----------|--0----------------|
------------------------|---------------------|-------------------|

  [F]                         [E]                         [Am]                                  
------------------------|------------------------|--0----------------|
------------------------|--0--------0~-----------|--1----------------|
--2--------2~-----------|-----1----------1-------|--2----------------|
-----3----------3-------|--------2----------2~---|--2----------------|
--------3----------3~---|------------------------|--0----------------|
------------------------|------------------------|-------------------|

  [E]                       [Am]            [G]              [F]           [E]                        
----------------------|-------------------------|----------------------|
----------------------|-------------------------|----------1~-----0~---|
----------------------|--2-------------------2~-|----0--2--------------|
--2~---0~-------------|--2--------2~---0--2--3~-|----------------------|
------------3~---2~---|-----0--2--3~------------|----------------------|
----------------------|-------------------------|----------------------|

  [Am]            [G]              [F]                       [C]                                   
-------------------------|----------------------|----------------------|
-------------------------|----0--1~---0~--------|-----------1----------|
--2-------------------2~-|----0--2~---0~---2~---|-----------0----------|
--2--------2~---0--2--3~-|-----------------3~---|--2--0h-2--2----------|
-----0--2--3~------------|----------------------|----------------------|
-------------------------|----------------------|----------------------|

  [G]                        [C]         [F]            [C]       [G]                                
-----------------------|--------------------|---------------------|
-----------------------|--------------------|---------3----3------|
-----------------------|--0~-------2~-------|--0------4----4------|
----0--2--3--2~---0~---|--2~-------3~-------|--2------5----5------|
-----------------------|--3~-------3~-------|--3------5----5------|
-----------------------|--------------------|---------------------|

  [C]                      [C]          [F]               [C]                                     
--------------------||------------1----1----|----8---------------||
--1-----------------||--1----1----1----1----|----8---------------||
--0----------------*||--0----0----2----2----|----9---------------||
--2----------------*||--2----2----3----3----|----10--------------||
--3-----------------||--3----3--------------|--------------------||
--------------------||----------------------|--------------------||


Important: The song above is NOT stored on the Chordie server. The original song is hosted at www.geocities.com. Chordie works as a search engine and provides on-the-fly formatting. Chordie does not index songs against artists'/composers' will. To remove this song please click here.

Text color:
Chord color:
Chord grids: 
Font size:    
Page size: 

Am C E F G
variations - click chord images

Login - add to songbook

Transpose chords

Tuning

Rating click stars to rate

Layout
Accuracy

SHARE PAGE  




You need to log in to post comments