Show me the meaning

Backstreet Boys

## song. You may only use this file for private study, scholarship, or research. #
 ##
 # Dit nummer is van de maker en presenteert dit nummer op zijn manier           ## Dit nummer is alleen voor prive gebruik                                       #                                                                                                           
Show me the meaning (Backstreet Boys)
Intro
Riff 1
Show me the meaning of being lonely
 F#mDEF#mDE
   So many words for the broken heart, it's hard to see in a crimson love
 EDBmC#
So hard to breathe, walk with me, and maybe
 F#mDEF#mDE
   Nights of light so soon become,    wild and free I could feel the sun
 EDBmC#
Your every wish will be done, they tell me . . .
Refrein:
 F#mDEF#mDE
   Show me the meaning of being lonely,    is this the feeling I need to walk with
A C# F#m D E Riff 1 (2nd time G#m)
Tell me why I can't be there where you are, there's something missing in my heart
 F#mDEF#mDE
   Life goes on as it never ends,    eyes of stone observe the trends
 EDBmC#
They never say forever gaze
 F#mDEF#mDE
   Guilty roads to an endless love, there's no control, are you with me now
 EDBmC#
Your every wish will be done, they tell me . . .
Refrein
Bridge:
 G#mEF#G#mEF#B
 There's nowhere to run, I have no place to go, surrender my heart, body and soul
 EbG#mEF#G#m
How can it be you're asking me to feel the things you never show, oooooooooooooowhoooooohoooooh
E E // stop F# F# // stop
Solo:
 G#mEF#G#mEF#BEbG#mEF#G#m
                   You are missing in my heart,        tell me why I can't be there where you are
Refrein 2:
 G#mEF#G#mEF#
   Show me the meaning of being lonely,    is this the feeling I need to walk with
 BEbG#mEF#
   Tell me why I can't be there where you are, there's something missing in my heart
Refrein 2
G#m // stop
Accoorden
B XX4442
Bm XX4432
C# XX3434
D XX0232
E X22100
Eb XX5343
F# XX4322
F#m XX4222
G#m XX6444
Riff 1
 F#m
e |-------------------------7h9--7---------------2---|
B |--7--9--10--~-~--7h9--10--------10--9h10--9---2---|
G |----------------------------------------------2---|
D |----------------------------------------------4---|
A |--------------------------------------------------|
E |--------------------------------------------------|

Solo
e |---------------------9h11-9-----------------------9h11-9----11-11-~~-9-----------------------------|
B |-9-11-12-~-~-9-11-12--------12-11h12-11-9-9-11-12--------12------------12-11-11h12-11-9------------|
G |----------------------------------------------------------------------------------------11-9-------|
D |---------------------------------------------------------------------------------------------11-9--|
A |---------------------------------------------------------------------------------------------------|
E |---------------------------------------------------------------------------------------------------|



B Bm C# D E Eb F# F#m G#m
variations - click chord images
Transpose chords:
Tuning:
Cool service:
View: Size:
A  A  A
Rating:
Layout:
  • Currently 1/5 Stars.
  • 1
  • 2
  • 3
  • 4
  • 5
 
Accuracy:
  • Currently 0/5 Stars.
  • 1
  • 2
  • 3
  • 4
  • 5
 
click stars to rate
Chordie recommends:
Learn to play guitar with video-based, online guitar lessons at JamPlay.com
Songbook:
Login to add this song to your songbook
Support the artist
Preview/buy this song
MSN Music
Why this non-profit ad?

 
login to add comments/video/corrections