Guitar Tabs, Chords and Lyrics


Daddys Little Girl   Against All Authority



Against all Authority.
Daddy's Little Girl.

Verse:

e  ---------------------------|
B  ---------------------------|
G  --------5555---55----------|
D  ---33---5555---55---3333---|    X 4
A  ---33---3333---33---3333---|
E  ---11---------------1111---|


e  ----------8—8—8—8----8—8—-8—-8—-8—-8--|
B  ------10-—8—8—8—8----8—8—-10-10-10-10-|
G  ---10-----9—9—9—9----9—9—-10-10-10-10-|
D  --------------------------------------|       X 2
A  --------------------------------------|
E  --------------------------------------|

e  --------------------------|
B  --------------------------|
G  --------------------------|
D  ---77---8888---33---3333--|
A  ---77---8888---33---3333--|
E  ---55---6666---11---1111--|

e  --------------------------|
B  --------------------------|
G  ---------------55---5555--|
D  ---77---8888---55---5555--|
A  ---77---8888---33---3333--|
E  ---55---6666--------------|

Chorus:

e  ------------------------------|
B  ------------------------------|
G  ---10-10----5555---33---------|
D  ---10-10----5555---33---3333--|
A  ----8--8----3333---11---3333--|
E  ------------------------1111--|

e  ----------------------------------------|
B  ----------------------------------------|
G  ---10-10----5555---33333333---55555555--|
D  ---10-10----5555---33333333---55555555--|
A  ----8--8----3333---11111111---33333333--|
E  ----------------------------------------|



Ending part:

e  ---------------------------|
B  ---------------------------|
G  --------5555---55----------|
D  ---33---5555---55---3333---|    X 2
A  ---33---3333---33---3333---|
E  ---11---------------1111---|

e  ---------------------------|
B  ---------------------------|
G  --------5----5-------------|
D  ---3----5----5----3--------|    X 2
A  ---3----3----3----3--------|
E  ---1--------------1--------|

e  ---------------------------|
B  ---------------------------|
G  --------5555---55----------|
D  ---33---5555---55---3333---|    X 2
A  ---33---3333---33---3333---|


Important: The song above is NOT stored on the Chordie server. The original song is hosted at www.guitaretab.com. Chordie works as a search engine and provides on-the-fly formatting. Chordie does not index songs against artists'/composers' will. To remove this song please click here.

This song is displayed as text-only. Transposing and tuning is only available for chordpro-songs.

Login - add to songbook

Rating click stars to rate

Layout
Accuracy

SHARE PAGE  




You need to log in to post comments