Guitar Tabs, Chords and Lyrics


The Promise  Anberlin

   [C]          [Am]          [F]         [G]                                                               
|--x--|    |--x--|   |--x--|   |--x--|
|--1--|    |--1--|   |--1--|   |--3--|
|--0--|    |--2--|   |--2--|   |--4--|
|--2--|    |--2--|   |--3--|   |--5--|
|--3--|    |--0--|   |--3--|   |--5--|
|--x--|    |--x--|   |--x--|   |--x--|


Intro(Acoustic)

|---------------------------------------------------------------------------|
|--3h5--6--5--3--5----3h5--6--5--3--5--1----3h5--6--5--3----3h5-6-5-3-5-1---|
|---------------------------------------------------------------------------|
|--------------------------------------------------------3------------------|
|---------------------------------------------------------------------------|
|---------------------------------------------------------------------------|


Verse 1:

If you need a frie[C]nd,
don't look [Am]to a stranger,
You know [F]in the end,
I'll always b[C]e there.

And when you're [C]in doubt,
and when you're i[Am]n danger,
Take a look all[F] around,
and I[C]'ll be there.
Chorus:
I'[C]m sorry, but I'm just thinking of the right words to say. (I promise)
I [Am]know they don't sound the way I planned them to be. (I promise)
But[F] if you'll wait around a while, I'll make you fall for me,
I pro[Am]mise, I pr[G]omise you I will.

Verse 2:
When you[C]r day is through,
and so is y[Am]our temper,
You know what[F] to do,
I'm gonna always[C] be there.

Someti[C]mes if I shout,
it's not[Am] what's intended.
These words ju[F]st come out,
with no g[C]ripe to bear.

Chorus 2:
I'm sorry, bu[C]t I'm just thinking of the right words to say. (I promise)
I know th[Am]ey don't sound the way I planned them to be. (I promise)
But if yo[F]u'll wait around a while, I'll make you fall for me,
I promi[Am]se, I promise y[G]ou...

I'm sorry, b[C]ut I'm just thinking of the right words to say. (I promise)
I know they [Am]don't sound the way I planned them to be. (I promise)

And if I had to[F] walk the world, I'd make you fall for me,
I prom[Am]ise, I promise you [G]I will.
Solo(Acoustic)

I gotta tell ya, I need to tell ya, I gotta tell ya, I gotta tell yaaaa ...

|---------------------------------------------------------------------------|
|----------------------------------------------------------------3----------|
|----0--5--4--5--0-------7--5--4--5--0--------0--5--5--4--5----5---5---5----|
|---------------------------------------------------------------------------|
|---------------------------------------------------------------------------|
|---------------------------------------------------------------------------|
|---------------------------------------------------------------------------|
|---------------8--5--3--3------------------------8--5--3--3----------------|
|----0--4--5---------------2-----------0--4--5---------------2--------------|
|---------------------------------------------------------------------------|
|---------------------------------------------------------------------------|
|---------------------------------------------------------------------------|


Last Chorus:
I'm sorry, but[C] I'm just thinking of the right words to say. (I promise)
I know they d[Am]on't sound the way I planned them to be. (I promise)
But if you'll w[F]ait around a while, I'll make you fall for me,
I promi[Am]se, I promise[G] you...

I'm sorry, but[C] I'm just thinking of the right words to say. (I promise)
I know they d[Am]on't sound the way I planned them to be. (I promise)
And if I had t[F]o walk the world, I'd make you fall for me,
I prom[Am]ise, I promise you [G]I will ...
I w[C]ill...
I will...
I will

Important: The song above is NOT stored on the Chordie server. The original song is hosted at www.guitaretab.com. Chordie works as a search engine and provides on-the-fly formatting. Chordie does not index songs against artists'/composers' will. To remove this song please click here.

Text color:
Chord color:
Chord grids: 
Font size:    
Page size: 

Am C F G
variations - click chord images

Login - add to songbook

Transpose chords

Tuning

Rating click stars to rate

Layout
Accuracy

SHARE PAGE  




You need to log in to post comments