Guitar Tabs, Chords and Lyrics


So Divided   and You Will Know Us By The Trail Of Dead



Tabbed by:godfrey
Email:godfrey_patrick@hotmail.com

Tuning:DADGBE
    hear the   noise          town      "gather"    "one"          "see,what"
e|---------------------------------------------------------------------------|
B|---------------------------------------------------------------------------|
G|--7--7--77---10--10--1010---9--9--99---7--7--77---10--10--1010---7--7--77--|
D|--7--7--77---10--10--1010---9--9--99---7--7--77---10--10--1010---7--7--77--|
A|--5--5--55---10--10--1010---7--7--77---5--5--55---10--10--1010---5--5--55--|
E|---------------------------------------------------------------------------|
    "up to now"
e|-----------------------------------------|
B|-----------------------------------------|
G|-----------------------------------------|
D|--10-101010--101010--1010-101010-----x4--|
A|--10-101010--101010--1010-101010---------|
E|--10-101010--101010--1010-101010---------|

 "look around"
e|------------------7-7--------------------------------------------------------------|
B|----5---8-8--7-7------7------------------------------------------------------------|
G|--5---5----5----5------------------------------------------------------------------|
D|-----------------------------------------------------------------------------------|
A|-----------------------------------------------------------------------------------|
E|-----------------------------------------------------------------------------------|
  "i hear the sound of a voice..  "wonder from what   hand
e|--------5-------------------------------------------------------------------|
B|----5--------7-5-7-8-7------------------------------------------------------|
G|--5---5---5-----------------------------------------------------------------|
D|----------------------------------------------------5-55-5555---------------|
A|----------------------------------------------------5-55-5555---------------|
E|----------------------------------------------------5-55-5555---------------|

all of you lovers           out of your misery
e|---------------------------------------------------------------------------|
B|---------------------------------------------------------------------------|
G|---------------------------------------------------------------------------|
D|--5--5--5--5--5--5--5--5--10--10--10--10--10--10--10--10-------------------|
A|--5--5--5--5--5--5--5--5--10--10--10--10--10--10--10--10-------------------|
E|--5--5--5--5--5--5--5--5--10--10--10--10--10--10--10--10-------------------|

just listen to the song to get the amount of times to play each part and play with the 


Important: The song above is NOT stored on the Chordie server. The original song is hosted at www.guitaretab.com. Chordie works as a search engine and provides on-the-fly formatting. Chordie does not index songs against artists'/composers' will. To remove this song please click here.

This song is displayed as text-only. Transposing and tuning is only available for chordpro-songs.

Login - add to songbook

Rating click stars to rate

Layout
Accuracy

SHARE PAGE  




You need to log in to post comments