Guitar Tabs, Chords and Lyrics


Angry Anymore   Ani Difranco



from Up Up Up Up Up Up
by Ani Difranco
Tuning: EBBFBE


		E B B F# B E capo 3rd
  main progression:
  G|-------0---------------------0--------0-------0----|
  D|--------------0--------------0--------0-------0----|
  A|---0h2----2p0----------------0--------0-------0----|
  D|-----------------0h4-h5------5----h4------s5-------|
  D|--------------------------0-------h4------s5-------|
  G|--------------------------0-------h4------s5-------|


  the chorus ends with this:
  G|-------0---------------------0--------0-------0-------0--|
  D|--------------0--------------0--------0-------0-------0--|
  A|---0h2----2p0----------------0--------0-------0-------0--|
  D|-----------------0h4-h5------5----h4------s5------s7-----|
  D|--------------------------0-------h4------s5------s7-----|


Important: The song above is NOT stored on the Chordie server. The original song is hosted at www.guitaretab.com. Chordie works as a search engine and provides on-the-fly formatting. Chordie does not index songs against artists'/composers' will. To remove this song please click here.

This song is displayed as text-only. Transposing and tuning is only available for chordpro-songs.

Login - add to songbook

Rating click stars to rate

Layout
Accuracy

SHARE PAGE  




You need to log in to post comments