Just Between You & Me

April Wine

e|-----35353---3535|-7---------------|-----7-9-10-10-9-7-5---|-7---------------|

B|-----------------|-----------------|---------------------5-|----5--------3535|

G|-----------------|-----------------|-----------------------|-----------------|

D|-----------------|-----------------|-----------------------|-----------------|

A|-----------------|-----------------|-----------------------|-----------------|

E|-----------------|-----------------|-----------------------|-----------------|

e|-----------------|

B|-3---------------|

G|-----------------|

D|-----------------|

A|-----------------|

E|-----------------|


 GBmC
 Time and time again I see
 GEmAmD
A love that seemed strong was not meant to be, 
 GBmC
 Broken hearts don't always end,
 EbGEmAmD
 Left too unsure to try love again. 
Chorus:
 GDC
 Just between you and me
 GBmC
Baby I know our love will be,
 GDC
 Just between you and me
 GBmC
Always I know our love will be,
 GC
 Just between you and me.
Verse:
Lovers often seem to say
Hearts can be blind to love gone astray,
Always its the same old song,
Someone's been hurt by a love that's gone wrong.
Chorus:
 GDC
 Just between you and me
 GBmC
Baby I know our love will be,
 GDC
 Just between you and me
 GBmC
Always I know our love will be,
 G
 Just between you -
 GC
 Just between you and me.
Solo:
Verse:
Words are sometimes hard to find,
The silence can be so unkind,
You always help me find my way,
The love that we share grows stronger each day.
Chorus:
Just between you and me
Baby I know our love will be,
Just between you and me
Always I know our love will be,
Just between you and me.
Seulement entre toi et moi
Means that our love will always be,
Just between you and me
Baby I know our love will be,
Just between you -=20
Just between you and me.
Ending:
e|-----------------|-----------------|-3---------------|
B|-----------------|-----------------|-3---------------|
G|-9-------7-------|-5-------7-------|-4---------------|
D|---9---9---7-----|---5-------7---7-|-5---------------|
A|-----7-------5---|-----3-------5---|-5---------------|
E|-----------------|-----------------|-3---------------|

1 & 2 & 3 & 4 & 1 & 2 & 3 & 4 & 1 & 2 & 3 & 4 &
transcribed by chris gaasch


Am Bm C D Eb Em G
variations - click chord images
Transpose chords:
Tuning:
Cool service:
View: Size:
A  A  A
Rating:
Layout:
  • Currently 4.5/5 Stars.
  • 1
  • 2
  • 3
  • 4
  • 5
 
Accuracy:
  • Currently 2/5 Stars.
  • 1
  • 2
  • 3
  • 4
  • 5
 
click stars to rate
Chordie recommends:
Get acoustic guitar lessons and electric guitar lessons at JamPlay.com
Songbook:
Login to add this song to your songbook
Support the artist
Preview/buy this song
MSN Music
Why this non-profit ad?

 
login to add comments/video/corrections