Guitar Tabs, Chords and Lyrics


Pahempi Toistaan  Apulanta

E |----------------------------------|---------------------------------|
H |----------------------------------|---------------------------------|
G |----------------------------------|---------------------------------|
D |----------------------------------|---------------------XX555X555X--|
A |----2-222--2--2--3-2-2-2-2--5-555-|----2-222--2--2--3-2-XX555X555X22|
E |1p0-2-222--2--2--3-2-2-2-2--5-555-|1p0-2-222--2--2--3-2-XX333X222X22|
H |----0-000--0--0--1-0-0-0-0--3-333-|----0-000--0--0--1-0-----------00| X2
  PM. |-----|          |-----|           |-----|
E |-----------------------------------|---------------------------------|
  H |-----------------------------------|---------------------------------|
G |-----------------------------------|---------------------------------|
D |-----------------------------------|---------------------XX555X555X--|
A |----2-222--2--2--3-222-2-2-555-555-|----2-222--2--2--3-2-XX555X555X22|
E |1p0-2-222--2--2--3-222-2-2-555-555-|1p0-2-222--2--2--3-2-XX333X222X22|
H |----0-000--0--0--1-000-0-0-333-333-|----0-000--0--0--1-0-----------00|X2
  PM. |-----|            |---|            |-----|
E |-----------------------------------|----------------------------------|
H |-----------------------------------|----------------------------------|
G |-----------------------------------|----------------------------------|
D |-----------------------------------|---------------------XX555X555X222|
A |----2-222--2--2--3-222-2-2-555-555-|----2-222--2--2--3-2-XX555X555X222|
E |1p0-2-222--2--2--3-222-2-2-555-555-|1p0-2-222--2--2--3-2-XX333X333X000|
H |----0-000--0--0--1-000-0-0-333-333-|----0-000--0--0--1-0--------------|
  PM. |-----|            |---|            |-----|
E |-----------------------------------|----------------------------------|
H |-----------------------------------|----------------------------------|
G |-----------------------------------|----------------------------------|
D |-----------------------------------|---------------------XX555X555X444|
A |----2-222--2--2--3-222-2-2-555-555-|----2-222--2--2--3-2-XX555X555X444|
E |1p0-2-222--2--2--3-222-2-2-555-555-|1p0-2-222--2--2--3-2-XX333X333X222|
H |----0-000--0--0--1-000-0-0-333-333-|----0-000--0--0--1-0--------------|
  PM. |-----|            |---|            |-----|

K[B5]umpikaan meistä ei oo eikä ollut kul[B5]taa
V[G5]aikka me niin annettiin olet[G5]taa

Background riff
G |---------------------|
D |-----5-4-------------|
A |---------------------| 

Ei huomattu lainkaan
et kuinka ollaan velkaa
Kuin vasta ny kun nenää siihen
painetaan
   [D]Kumpikin toistaan par[Bm]emmin tiesi
jokaisen vaiheen
   [F#m]Kumarrettiin kuvaa peili[Bm]ssä

Pahempi[B5] toistaan kumpikin[G5] on
ja kuinka nyt ne [D5]tappaa tois[C#5]iaan
Sokeina [B5]toistaa lausetta sa[G5]maa
Kuinka ne on [D5]tässä oikees[C#5]sa
Rumempi [B5]toistaan kumpikin te[G5]ko
Eikä niitä [D5]tekemättömiksi s[C#5]aa
Eikä ne [B5]huomaa kumpikin [C#5]on
Vain pahempi [D5]toistaan [C#5]

Important: The song above is NOT stored on the Chordie server. The original song is hosted at www.guitaretab.com. Chordie works as a search engine and provides on-the-fly formatting. Chordie does not index songs against artists'/composers' will. To remove this song please click here.

Text color:
Chord color:
Chord grids: 
Font size:    
Page size: 

B5 Bm C#5 D D5 F#m G5
variations - click chord images

Login - add to songbook

Transpose chords

Tuning

Rating click stars to rate

Layout
Accuracy

SHARE PAGE  




You need to log in to post comments