Chordie logo

Bad Woman  Arctic Monkeys

E|-7-----7-----7-----------------------------------------------------------|


B|-8----8------8----------10-12-10-8-10-8-----------------12-10--10-----12~|


G|-9---9-------9-------------------------11-9--------9-11------12--1211----|


D|----------------------------------------------10-12----------------------|


A|--------------------------------------------12---------------------------|


E|-------------------------------------------------------------------------|



When you [Em]left the house this evening,
you said you'd [Em]be back in a little while.
But I've been [Em]waiting for such a long time,
Bm Am G BmBm<--two sharp down strokes
and this waiting is driving me wild.

Verse 2
And while I [Em]wait I think about you,
do you [Em]need me and I'm not there?
Are you [Em]planning to be without me?
Bm Am G BmBm<--two sharp down strokes
Do you have a new affair?


Chorus
You're a [Bm]bad, [Am]bad [G]woman.
Bm Am G BmBm<--two sharp down strokes
You're a bad, bad woman.


Post-Chorus
Drums
E|------------------------7--|
B|---/10-8-7-5---/10-8-7-5-8-|
G|--------------------------9|
D|---------------------------|
A|---------------------------|
E|---------------------------|



Verse 3
Pictures [Em]of you keep flashing to my mind.
If you would [Em]only call,
if you would be so kind.
Im[Em]agine things, I've seen another man.
Bm Am G BmBm<--two sharp down strokes
And it's this waiting I just can't stand.

Played over the chords
Chorus                       E|---------------------|
         Bm   Am  G  <------ B|---------------------|

You're a bad, bad woman. G|-9129129129--129129--|
         Bm   Am  G  <------ D|---------------------|

You're a bad, bad woman. A|-^Just flick between 9 and 12
         Bm   Am  G          E|---------------------|

You're a bad, bad woman.
Bm Am G BmBm<--two sharp down strokes
You're a bad, bad woman.


Quality song, Hawley and the monkeys both sheffield legends

Important: The song above is NOT stored on the Chordie server. The original song is hosted at www.guitaretab.com. Chordie works as a search engine and provides on-the-fly formatting. Chordie does not index songs against artists/composers will. To remove this song please click here.

Am Bm Em G
variations - click chord images

Login - add to songbook

Transpose chords

Tuning

Rating click stars to rate

Layout
Accuracy

SHARE PAGE  



You need to log in to post comments