Guitar Tabs, Chords and Lyrics


Alices Restaurant Massacree   Arlo Guthrie


 E------------------|0-----------0----|-----5----3-0----|--0---------0----|
 B------0----1----3-|-----1----4------|-----------------|3---------0------|
 G------------------|-----0-----------|-----------------|---------------0-|
 D------------------|-----2---------2-|-----2---------2-|-----4-----------|
 A-----------0----2-|3---------3------|0---------0------|5----------------|
 E------3-----------|-----------------|-----------------|----------3------|











   [1]     [2]     [3]     [4]   [1]     [2]     [3]     [4]   [1]     [2]     [3]     [4]   [1]     [2]     [3]     [4]                       


 E------------------|0-----------0----|-----5----3-0----|------------0----|
 B-1------1----3----|-----1----4------|-----------------|-----3----3-----0|
 G-----------------0|-----0----------0|-----------------|-------5---------|
 D------------------|-----2---------2-|-----2---------2-|-----4---------4-|
 A-3---------0----2-|3---------3------|0---------0------|5---------0------|
 E------3-----------|-----------------|-----------------|-----------------|





   [1]     [2]     [3]     [4]   [1]     [2]     [3]     [4]   [1]     [2]     [3]     [4]   [1]     [2]     [3]     [4]                       


 E------------------|0-----------0----|0----0----0-3----|-----------------|
 B---1----2----3----|-----1----4-----1|-----------------|----------1-3----|
 G------------------|-----0-----------|-----------------|2----0-----------|
 D------------------|-----2---------2-|-----2---------2-|-----3---------3-|
 A------0----1----2-|3---------3------|3---------3------|-----------------|
 E-3----------------|-----------------|-----------------|1---------1------|





   [1]     [2]     [3]     [4]   [1]     [2]     [3]     [4]   [1]     [2]     [3]     [4]   [1]     [2]     [3]     [4]                       


 E------------------|0-----------0----|5----5----3-0----|--0---------0----|
 B-1-3-------1-3----|-----1----4------|-----------------|3---------0------|
 G--------2---------|-----0-----------|-----------------|---------------0-|
 D------0---------0-|-----2---------2-|-----2---------2-|-----4-----------|
 A------------------|3---------3------|0---------0------|5----------------|
 E-2---------2------|-----------------|-----------------|----------3------|





   [1]     [2]     [3]     [4]    [1]     [2]     [3]     [4]                                                          


 E-------------0----|-----------------|
 B-1---------4------|-1---------------|
 G------0-----------|-----------------|
 D------------------|-----------------|
 A-3---------2----2-|-3---------------|
 E------3-----------|-----------------|



Important: The song above is NOT stored on the Chordie server. The original song is hosted at www.guitaretab.com. Chordie works as a search engine and provides on-the-fly formatting. Chordie does not index songs against artists'/composers' will. To remove this song please click here.

This song is displayed as text-only. Transposing and tuning is only available for chordpro-songs.

Login - add to songbook

Rating click stars to rate

Layout
Accuracy

SHARE PAGE  




You need to log in to post comments