Guitar Tabs, Chords and Lyrics


Strenght Of The World   Avenged Sevenfold



Hey, I'm Matt Gallant, I tabbed this a while ago. It sounds pretty effing close to me. 
er' out. Happy Playing
Acoustic

E----1------1------------1-----1----3-3h5p3--3------------3----------3---|
B------3------3------------3-----3-------------3------------3----------3-|
G--------2------2------------2--------------------0--0---------0--0------|
D---------------------------------------------------0--0---------0--0----|
A------------------------------------------------------------------------|
D--0----------------0-0--------------------------------------------------|

the starting of the electric
E-------------------------------------------------------------------------|
B-------------------------------------------------------------------------|
G-------------------------------------------------------------------------|
D---------7--------7--------7-----------------5---------------------------|
A------5-----8--5-----8--5-----8/10--8--7--5--5---------------------------|


Important: The song above is NOT stored on the Chordie server. The original song is hosted at www.guitaretab.com. Chordie works as a search engine and provides on-the-fly formatting. Chordie does not index songs against artists'/composers' will. To remove this song please click here.

This song is displayed as text-only. Transposing and tuning is only available for chordpro-songs.

Login - add to songbook

Rating click stars to rate

Layout
Accuracy

SHARE PAGE  




You need to log in to post comments