Complicated Live

Avril Lavigne

1/--------------------13-12-----------------------------|

2/-10-13-10-10-6-8-10------10-13-10-10-6-8-10.-5b-5b-5b-|
3/------------------------------------------------------|
4/------------------------------------------------------|
5/------------------------------------------------------|
6/------------------------------------------------------|

 F
 Chill out, what you yellin' for?
 Dm
 Lay back, it's all been done before
 Bbsus2C
 And if you could only let it be, you will see

 F
 I like you the way you are
 Dm
 When we're, driving in my car
 Bbsus2C
 And you're talking to me one on one, but you've become

 F
 Somebody else 'round everyone else
 Dm
 Watchin' your back like you can't relax
 Bbsus2C
 You're tryin' to be cool; you look like a fool to me... Tell me

 DmBbsus2F
 Why do you have to go and make things so complicated?
 C
 I see the way you're
 DmBbsus2F
 Acting like you're somebody else gets me frustrated
 C
 Life's like this, you

 DmBbsus2
 And you fall and you crawl
 F
And you break and you take
 C
What you get and you turn it into

Honesty promise me I'm never gonna find you fake it...
1/-------3---|
2/-----3---6-|
3/---0-------|
4/-----------|
5/-----------|
6/-3---------|


No, no, no
1/------------|
2/------------|6./0
3/------------|
4/------------|
5/------------|
6/------------|


 F
 You come over unannounced
 Dm
 Dressed up like you're something else
 BbC
 Where you are and where you sat, you see, you're making me

 F
 Laugh out when you strike a pose
 Dm
 Take off all your preppy clothes
 BbC
 You know you're not fooling anyone when you become

 F
 Somebody else 'round everyone else
 Dm
 Watchin' your back like you can't relax
 Bbsus2C
 You're tryin' to be cool; you look like a fool to me... Tell me

 DmBbsus2F
 Why do you have to go and make things so complicated?
 C
 I see the way you're
 DmBbsus2F
 Acting like you're somebody else gets me frustrated
 C
 Life's like this, you

 DmBbsus2
 And you fall and you crawl
 F
And you break and you take
 C
What you get and you turn it into

Honesty promise me I'm never gonna find you fake it...
1/-------3---|
2/-----3---6-|
3/---0-------|
4/-----------|
5/-----------|
6/-3---------|


No, no, no No, no, no No, no, no No, no, no
1/-------------------------------------------------|
2/-11-10-6----11-10-6--------11-10b-6------11-10-8-|
3/-------------------------------------------------|
4/-------------------------------------------------|
5/-------------------------------------------------|
6/-------------------------------------------------|


 BuBu
1/---------|

2/-2/3-1-6-|
3/---------|
4/---------|
5/---------|
6/---------|


 F
 Chill out, what you yellin' for?
 Dm
 Lay back, it's all been done before
 Bbsus2C
 And if you could only let it be, you will see

 F
 Somebody else 'round everyone else
 Dm
 Watchin' your back like you can't relax
 Bbsus2C
 You're tryin' to be cool; you look like a fool to me... Tell me

 DmBbsus2F
 Why do you have to go and make things so complicated?
 C
 I see the way you're
 DmBbsus2F
 Acting like you're somebody else gets me frustrated
 C
 Life's like this, you

 DmBbsus2
 And you fall and you crawl
 F
And you break and you take
 C
What you get and you turn it into

Honesty promise me I'm never gonna find you fake it...
1/-------3---|
2/-----3---6-|
3/---0-------|
4/-----------|
5/-----------|
6/-3---------|				



Bb Bbsus2 C Dm F
variations - click chord images
Transpose chords:
Tuning:
Cool service:
View: Size:
A  A  A
Rating:
Layout:
  • Currently 3.2/5 Stars.
  • 1
  • 2
  • 3
  • 4
  • 5
 
Accuracy:
  • Currently 3.3/5 Stars.
  • 1
  • 2
  • 3
  • 4
  • 5
 
click stars to rate
Chordie recommends:
Learn how to play guitar at JamPlay.com
Songbook:
Login to add this song to your songbook
Support the artist
Preview/buy this song
MSN Music
Why this non-profit ad?

 
login to add comments/video/corrections