eToCache5 = ""; ?> Albion by Babyshambles - guitar chords, guitar tabs and lyrics - chordie

Albion

Babyshambles

----------------------------------------------------------------------------

----------------------------------------------------------------------------

 CFmaj7DmAmG
e|-3--3-3-3-3--3-3--0-0-3-0-0--1--1-3-1-1--0-0-0--3-3-3----|
B|-1--1-1-1-1--1-1--1-1-1-1-1--3--3-3-3-3--1-1-1--0-0-0----|
G|-0--0-0-0-0--0-0--2-2-2-2-2--2--2-2-2-2--2-2-2--0-0-0----|  x2
D|-2--2-2-2-2--2-2--3-3-3-3-3--0--0-0-0-0--2-2-2--0-0-0----|
A|-3--3---3----3---------------------------0-0-0--2-2-2----|
E|------------------------------------------------3-3-3----|

V V ^ V ^ V ^ V V ^ ^ V V V ^ V ^ V ^ V V ^ V

Verse
 CFmaj7CG
e|-3-3-3-3-3--3-3-3-3-3--3-3-3-3-3--3-3-3-3-3--|
B|-1-1-1-1-1--1-1-1-1-1--1-1-1-1-1--0-0-0-0-0--| Played through once after
G|-0-0-0-0-0--2-2-2-2-2--0-0-0-0-0--0-0-0-0-0--| the intro then is continued
D|-2-2-2-2-2--3-3-3-3-3--2-2-2-2-2--0-0-0-0-0--| in the verse once the
A|-3-3-3---3--x-x-x---x--3-3-3---3--2-2-2-2-2--| singing starts
E|------------1-1-1---1-------------3-3-3-3-3--|

V V V ^ V V V V ^ V V V V ^ V V V V ^ V

Chorus
 Fmaj7CG
e|--0-0-0-0-0--0-0-0-0-0--3-3-3-3-3--|
B|--1-1-1-1-1--1-1-1-1-1--0-0-0-0-0--|
G|--2-2-2-2-2--0-0-0-0-0--0-0-0-0-0--| x3
D|--3-3-3-3-3--2-2-2-2-2--0-0-0-0-0--|
A|--x-x-x---x--3-3-3---3--2-2-2-2-2--|
E|--1-1-1---1-------------3-3-3-3-3--|

V V V ^ V V V V ^ V V V V ^ V

Third time through keep strumming the G chord during the place names in the
lyrics. Try listen tothe song get the rhythm.

On "...Anywhere in Albion" start playing the intro again.

Song Structure

Intro x2
Verse x5
Chorus x3
Freestyle on G
Bridge x1
Verse x3
Chorus x3
Freestyle on G
Chorus x3
Freestyle on G - less strumming though
Bridge x4

Use the Albion Chords ver.2 to match the lyrics to the chords, very helpful.





Am C Dm Fmaj7 G
variations - click chord images
Transpose chords:
Tuning:
Cool service:
View: Size:
A  A  A
Rating:
Layout:
  • Currently 1.4/5 Stars.
  • 1
  • 2
  • 3
  • 4
  • 5
 
Accuracy:
  • Currently 3.3/5 Stars.
  • 1
  • 2
  • 3
  • 4
  • 5
 
click stars to rate
Chordie recommends:
Check out JamPlay.com for online video guitar lessons
Songbook:
Login to add this song to your songbook
Support the artist
Preview/buy this song
MSN Music
Why this non-profit ad?

 
login to add comments/video/corrections