Guitar Tabs, Chords and Lyrics


Say Something Anyway   Bellefire



This is a great song by a severely underrated Irish girl group. I corrected the previous 
i did because the old one was totally wrong.

CAPO 1st fret

Intro:

--------------------------------------------------0-| not sure on the strum
-----1-----1---------1-----1---------1-----1------1-| part
---0-----0---2-----2-----2---2-----2-----2---2----2-|
-2-----2-------3-3-----3-------3-3-----3-------3--3-|
--------------------------------------------------0-|
----------------------------------------------------|

---------------------------------------------------|--0-| only strum when
------1-----1---------1-----1---------1-----1------|--1-| they sing
----0-----0---2-----2-----2---2-----2-----2---2----|--2-| "slipping away"
--2-----2-------3-3-----3-------3-3-----3-------3--|--3-|
---------------------------------------------------|--0-|
---------------------------------------------------|----|

repeat through first two verses

Verse 1:

Some say hearts
Grow silent
In a world where no one cares
Love keep slipping away
Some say time
Is the healer
But in a house where no one speaks
love keep slipping away


still working on the rest of the song



Important: The song above is NOT stored on the Chordie server. The original song is hosted at www.guitaretab.com. Chordie works as a search engine and provides on-the-fly formatting. Chordie does not index songs against artists/composers will. To remove this song please click here.

This song is displayed as text-only. Transposing and tuning is only available for chordpro-songs.

Login - add to songbook

Rating click stars to rate

Layout
Accuracy

SHARE PAGE  




You need to log in to post comments