Chordie logo

River Below Live   Billy Talent



Artist: Billy Talent
Song: River Below (Live)
Album: Billy Talent (2003)

Tabbed By: Greg Deveau
*If you have any comments,questions, etc email dj_smoke3@hotmail.com"
___________________________________________________________________________

Introduction:
(This is 100% right because I have seen him play it at MMVA's/Juno's/Video)

2x
|---------------------------------------------------------|
|---------------------------------------------------------|
|-------------7------------8--7--5------------------------|
|---5-5--8--5---5--8--5---(0)(0)(0)---8--7--5-------------|
|---5-5-----5---5-----5---(0)(0)(0)--(0)(0)(0)----8--6----|
|---5-5-----5---5-----5---(0)(0)(0)--(0)(0)(0)---(0)(0)---|
___________________________________________________________________________

Verse:
2x

|------------------3-|------------------3-|------------------|
|------------------4-|------------------4-|------------------|
|----7------2-3-5--5-|----7------2-3-5--5-|---7-----2-0---2--|
|-8--5--8---0-0-0--5-|-8--5--8---0-0-0--5-|-8---8---0-0-3-0--|
|-5--5--5---0-0-0--3-|-5--5--5---0-0-0--3-|---------0-0-0-0--|
|-5--5--5---0-0-0----|-5--5--5---0-0-0----|---------0-0-0-0--|


|--------------|--5-5-5-5--5-5-5-5-----|
|--------------|--7-7-7-7--7-7-7-7-----|
|--------3-3---|--5-5-5-5--5-5-5-5-----|
|----3---3-3---|--7-7-7-7--7-7-7-7-----|
|-1--1---1-3---|--5-5-5-5--5-5-5-5-----|
|--------------|-----------------------|
___________________________________________________________________________

Pre-Chorus

|---------3-----|----------------|---------1--------|--------5------|
|---------4-----|----------------|---------3--------|--------7------|
|---------5-----|-------0--------|---------3--------|-----5--5------|
|-----5---------|----8-----------|-----3------------|--7-----7--7---|
|-3----------3--|-6---------1----|--1---------1-----|---------------|
|---------------|----------------|------------------|---------------|

|---------3-----|----------------|---------1--------|-----------|
|---------4-----|----------------|---------3--------|-----------|
|---------5-----|-------0--------|---------3--------|-----------|
|-----5---------|----8-----------|-----3------------|-----------|
|-3----------3--|-6---------1----|--1---------1-----|--0--------|
|---------------|----------------|------------------|--0--------|

___________________________________________________________________________

Chorus:

|-----------------|-----------------|-----------------|-x----------------|
|-x---------------|-x---------------|-x---------------|-x-3-3-3-3-3-3-3--|
|-x---------------|-x---------------|-x---------------|-x-3-3-3-3-3-3-3--|
|-x-5-5-5-5-5-5-5-|-x-0-0-0-0-0-0-0-|-x-1-1-1-1-1-1-1-|-x-3-3-3-3-3-3-3--|
|-x-5-5-5-5-5-5-5-|-x-0-0-0-0-0-0-0-|-x-1-1-1-1-1-1-1-|---1-1-1-1-1-1-1--|
|-x-5-5-5-5-5-5-5-|-x-0-0-0-0-0-0-0-|-x-1-1-1-1-1-1-1-|------------------|

|------------|------------|------------|---------------|
|------------|------------|------------|---------------|
|--5-5-5-5---|------------|------------|---------------|
|--5-5-5-5---|--5-5-5-5---|-=0-0-0-0---|--1-1-1-1------|
|--3-3-3-3---|--5-5-5-5---|--0-0-0-0---|--1-1-1-1------|
|------------|--5-5-5-5---|--0-0-0-0---|--1-1-1-1------|

___________________________________________________________________________


Interlude:

4x
|------------------------|
|------------------------|
|---------7--------------|
|-5-5-8-5---5-8-5--------|
|-5-5---5---5---5----0---|
|-5-5---5---5---5----0---|


Then
|------------------------|
|------------------------|
|-7-7-7-7-7-7------------|
|-7-7-7-7-7-7------------|
|-5-5-5-5-5-5------------|
|------------------------|

___________________________________________________________________________

Outro:

|---------------------------------------------------------|
|---------------------------------------------------------|
|-------------7------------8--7--5------------------------|
|---5-5--8--5---5--8--5---(0)(0)(0)---8--7--5-------------|
|---5-5-----5---5-----5---(0)(0)(0)--(0)(0)(0)----8--6----|
|---5-5-----5---5-----5---(0)(0)(0)--(0)(0)(0)---(0)(0)---|


Important: The song above is NOT stored on the Chordie server. The original song is hosted at www.guitaretab.com. Chordie works as a search engine and provides on-the-fly formatting. Chordie does not index songs against artists/composers will. To remove this song please click here.

This song is displayed as text-only. Transposing and tuning is only available for chordpro-songs.

Login - add to songbook

Rating click stars to rate

Layout
Accuracy

SHARE PAGE  

You need to log in to post comments