Guitar Tabs, Chords and Lyrics


Wait For Me  Bob Seger

        I will lance through the [G#]wind
        I will leave with the [C#]tide
        I'll be out on the [G#]road
        Every chance I can r[C#]ide

        No matter how [Fm]far
     [Eb]   No matter how [C#]free
     [Cm]   I'll be a[Bbm]long
     [Fm]   If you'll wait f[G#]or me     [C#]

        They'll be times when I [G#]rise
        They'll be times when I'll [C#]fall
        They'll be times when it's [G#]best
        To say nothing at [C#]all
        Know when you're [Fm]right
     [Eb]   I'm letting it [C#]be
     [Cm]   I'll be [Bbm]around
     [Fm]   If you'll wait for [G#]me,
     [C#]   If you'll wait for[G#] me
        And I'll [Fm]fight for the r[Eb]ight to go o[G#]ver that hill
        If it [Fm]always means s[Eb]omething to [G#]me
        I will [Bbm]not be pe[F#m]rsuaded
        [G#]I won't be still
        I'll find a way to be f[Eb]ree
Solo: G# C# G# C#
Solo:
e|-------------------------------------------------------------------|

B|-----11b�11---9----9----6-----9------------------------------------|
G|------------------------------------7---5---5---5------------------|
D|-----------------------------------------------------8---6---------|
A|-------------------------------------------------------------------|
E|-------------------------------------------------------------------|
e|-------------------------------------------------------------------|
B|-----------------4----6---4----/9-9~-----/11b---13---11--13--11----|
G|-------------6-----------------------------------------------------|
D|--0---3--6---------------------------------------------------------|
A|-------------------------------------------------------------------|
E|-------------------------------------------------------------------|
e|-------------------------------------------------------------------|
B|----11---9---11---9-----6-/11---9----------------------------------|
G|-------------------------------------------------------------------|
D|-------------------------------------------------------------------|
A|-------------------------------------------------------------------|
E|---------------------------------------------===-------------------|

        In the cool of the n[G#]ight
        In the heat of the d[C#]ay
        If you�re ever in [G#]doubt    * * * See below for guitar licks being
C# played here
I�ll be on my way
        Straight to your [Fm]sun        * * *
     [Eb]   I guarante[C#]e                 * * *
     [Cm]   I�ll be [Bbm]around
     [Fm]   If you�ll wait for [G#]me,
     [C#]   if you�ll wait for [G#]me


This is played while the female singers are singing in the last section. As they sing
in �Wait for me� begin playing this lick:
e|----------------------------------------|

B|----------------------------------------|
G|----------------------------------------|
D|----------------------------------------|
A|-------------4---6---8------------------|
E|--------4/6---------------8p6-----------|

        [G#]Wait for [C#]Me,     [G#]Wait for [C#]Me,
        [G#]Wait for [C#]Me,     [G#]Wait for [C#]Me

Outro
e|------------------------------------------|

B|------------------------------------------|
G|------------------------------------------|
D|----------6--------8--------6-------------|
A|----/8-------8--------6-------------------|
E|------------------------------------------|


*** Licks played throughout the last verse***

                       E-----------------------|

B-----11b�9�11�9--------|
G-----------------------|
D-----------------------|
A-----------------------|
E-----------------------|
If you�re ever in doubt

                   E--------------          e---------------------|

B-----4h6p4---- B---2p1---------------|
G-------------- G---------------------|
D-------------- D---------------------|
A-------------- A---------------------|
E-------------- E---------------|

Straight to your sun I guarantee

Important: The song above is NOT stored on the Chordie server. The original song is hosted at www.guitaretab.com. Chordie works as a search engine and provides on-the-fly formatting. Chordie does not index songs against artists/composers will. To remove this song please click here.

Text color:
Chord color:
Chord grids: 
Font size:    
Page size: 

Bbm C# Cm Eb F#m Fm G#
variations - click chord images

Login - add to songbook

Transpose chords

Tuning

Rating click stars to rate

Layout
Accuracy

SHARE PAGE  




You need to log in to post comments