Guitar Tabs, Chords and Lyrics


pack Master   Bongzilla



Bongzilla - Tri-Pack Master
Amerijuanican (2005)
Tabbed By ruker (Varuker@gmail.com)
Tuned Down 3 Steps BEADF#B

-------------
Key:
-------------
. Palm Mute
~ Vibrato
h Hammer-On
p Pull-Off
\ Slide Up
/ Slide Down
-------------



Riff A (0:07)                                       4x
||----------------------------------------------------||
||*--------------------------------------------------*||
||----------------------------------------------------||
||----------------------------------------------------||
||*-5/7-7-7--7--7--5-7-7-7--5/7-7-7--7--9--8--7--5-7-*||
||--3/5-5-5--5--5--3-5-5-5--3/5-5-5--5--7--6--5--3-5--||



Riff B (0:26)                       4x
||------------------------------------||
||*----------------------------------*||
||------------------------------------||
||--------------7--9-9--7-------------||
||*-5--7--8--9--5--7-7--5--9--8--7-5-*||
||--3--5--6--7-------------7--6--5-3--||



Riff A (0:45)                                       4x
||----------------------------------------------------||
||*--------------------------------------------------*||
||----------------------------------------------------||
||----------------------------------------------------||
||*-5/7-7-7--7--7--5-7-7-7--5/7-7-7--7--9--8--7--5-7-*||
||--3/5-5-5--5--5--3-5-5-5--3/5-5-5--5--7--6--5--3-5--||



Riff B (1:04)                       4x
||------------------------------------||
||*----------------------------------*||
||------------------------------------||
||--------------7--9-9--7-------------||
||*-5--7--8--9--5--7-7--5--9--8--7-5-*||
||--3--5--6--7-------------7--6--5-3--||



Chorus (1:23)                            4x
||-----------------------------------------||
||*---------------------------------------*||
||-----------------------------------------||
||-----------------------------------------||
||*-9--8--7---5--7\5/7--9--8--7---5--7--5-*||
||--7--6--5---3--5\3/5--7--6--5---3--5--3--||



Riff A (1:43)                                       4x
||----------------------------------------------------||
||*--------------------------------------------------*||
||----------------------------------------------------||
||----------------------------------------------------||
||*-5/7-7-7--7--7--5-7-7-7--5/7-7-7--7--9--8--7--5-7-*||
||--3/5-5-5--5--5--3-5-5-5--3/5-5-5--5--7--6--5--3-5--||



Riff B (2:01)                       4x
||------------------------------------||
||*----------------------------------*||
||------------------------------------||
||--------------7--9-9--7-------------||
||*-5--7--8--9--5--7-7--5--9--8--7-5-*||
||--3--5--6--7-------------7--6--5-3--||



Chorus (2:21)                            6x
||-----------------------------------------||
||*---------------------------------------*||
||-----------------------------------------||
||-----------------------------------------||
||*-9--8--7---5--7\5/7--9--8--7---5--7--5-*||
||--7--6--5---3--5\3/5--7--6--5---3--5--3--||


Outro (2:49)
||-----------------------------------------------------||
||*---------------------------------------------------*||
||-----------------------------------------------------||
||-----------------------------------------------------||
||*-5/7-7-7--7--7--7-7-/10~--5/7-7-7--7--7--7-7-/12~--*||


Important: The song above is NOT stored on the Chordie server. The original song is hosted at www.guitaretab.com. Chordie works as a search engine and provides on-the-fly formatting. Chordie does not index songs against artists'/composers' will. To remove this song please click here.

This song is displayed as text-only. Transposing and tuning is only available for chordpro-songs.

Login - add to songbook

Rating click stars to rate

Layout
Accuracy

SHARE PAGE  




You need to log in to post comments