Chordie logo


Through Art A Villain   Catherine




     (0:00-0:05) Just try this one more
   D|------------------|
   A|------------------|
   F|-3-3-7-7-5-5-9-9--|
   C|-5-5-7-7-7-7-7-7--|
   G|------------------|
   C|------------------|

     (0:05-0:16)  Time!!
   D|------------------------------------------|
   A|------------------------------------------|
   F|-8-8-8-----------0-0----0-0----0-0--3-2-0-|
   C|-8-8-8-5-5-5------------------------------|
   G|-6-6-6-5-5-5------------------------------|
   C|-------5-5-5--3-3----3-3----3-3-----------|

     (0:16-0:28)  Hours change as seasons show just like before my feet are chained to 
and i will never soar
   D|-------------------------------------------------------------|
   A|------------10-11-10------------10-11-10----0-0----0-0-3-2-0-|
   F|-12-12-10-12---------12-12-10-12-----------------------------|
   C|-------------------------------------------------------------|
   G|-------------------------------------------------------------|
   C|-----------------------------------------3-3----3-3----------|

     (0:28-0:40} They always ask me for keys to open gates but tell me why we think a 
land awaits
   D|-----------------------------------------------------|
   A|-----------------------------------------------------|
   F|---7-7-7-5-0--7-7-7-5-0---7-7-7-------7-7-7-5-5-5----|
   C|-55-5-5-----55-5-5-----5-----------------------------|
   G|------------------------66-6-6-66-6-88-8-8-8-8-8-888-|
   C|-----------------------------------------------------|

     (0:40-0:51) They always ask me for keys to open gates but how would i know? But how 
i know?
   D|-------------------------------------------------|
   A|-------------------------------------------------|
   F|--12-12-12-14-12--------7-7-7-7------7-7-7-5-5-5-|
   C|-------------------------------------------------|
   G|-10-10-10-10-10-10101066-6-6-6-66-8-8-8-8-8-8-8-8|
   C|-------------------------------------------------|
     (0:51-1:21) hammer and pulloff 10 13 and use your pick hand to hammer 22 & 21
   D|-------------------------------|
   A|-------------------------------|
   F|-------------------------------|
   C|-------------------------------|
   G|-10-13-10-13-10-13-10-13-10-13-|
   C|-------------------------------|

     (0:57-1:21)  Look!Im Melting!
   D|-------------------------------|
   A|-------------------------------|
   F|-------------------------------|
   C|-5-5-555~-5-5-1-3-5------------|
   G|-5-5-555~-5-5-1-3-5------------|
   C|-5-5-555~-5-5-1-3-5------------|
     (1:21-1:26)
   D|------------------|
   A|------------------|
   F|-3-3-7-7-5-5-9-9--|
   C|-5-5-7-7-7-7-7-7--|
   G|------------------|
   C|------------------|

     (1:26-1:38) Living more like the ones we claim to hate Well try this one more time
   D|------------------------------------------|
   A|------------------------------------------|
   F|-8-8-8-----------0-0----0-0----0-0--3-2-0-|
   C|-8-8-8-5-5-5------------------------------|
   G|-6-6-6-5-5-5------------------------------|
   C|-------5-5-5--3-3----3-3----3-3-----------|

     (1:38-1:49) Please you peers with a promise,Priorities Well try this one more time
   D|---------------------------------------------------------------|
   A|------------10-11-10------------10-11-10----0-0----0-0-3-2-0---|
   F|-12-12-10-12---------12-12-10-12-------------------------------|
   C|------------------------------------------------------------5/-|
   G|------------------------------------------------------------5/-|
   C|-----------------------------------------3-3----3-3---------5/-|

   Fill me with another glass to pass along this demons grasp now!

     (1:55-2:18) They say this time it's different, of course this time it's different
   D|-----------------------------------------|
   A|-----------------------------------------|
   F|------8-77--------8-77-15-15-15-14-11-11-|
   C|----8-----------8------------------------|
   G|-----------------------13-13-13-12-9--9--|
   C|-5-5-5-5-----5-5-5-5---------------------|
     (2:18-2:30}
   D|--------------------------|
   A|--------------------------|
   F|------7-8-----------7-8---|
   C|-5-7-8---5-7-8-5-7-8----5~|
   G|------------------------5~|
   C|------------------------5~|

     (2:30-2:44) AHHHHHHHHH
   D|---------------------------------------------|
   A|---------------------------------------------|
   F|-0-3-2-0-0-0-2-0-3-3-2-0--33-2-0---33-2-33-2-|
   C|----------3-------------3^------3-0----0-----|
   G|---------------------------------------------|
   C|---------------------------------------------|

     (2:44-2:57) Theres no heros in me now, and im melting inside
   D|------------------------------|
   A|------------------------------|
   F|-111212-141415-1515-1715-11---|
   C|-X-X-X--X-X-X--X-X--X-X--X----|
   G|-9-1010-121213-1717-1513-9----|
   C|------------------------------|

     (2:57-3:06)
   D|---------------------------|
   A|---------------------------|
   F|---------------------------|
   C|-5/-5/-55-3/-3/-3333-1-1-1~|
   G|-5/-5/-55-3/-3/-3333-1-1-1~|
   C|-5/-5/-55-3/-3/-3333-1-1-1~|

     (3:07-3:11)
   D|----------------|
   A|----------------|
   F|----------------|
   C|-1111-1515-1414-|
   G|-X-X--X-X--X-X--|
   C|-9-9--1313-1212-|

     (3:11-4:34) Theres no heros, Youll have no such luck this time
   D|--------------------------------------------------------------------|
   A|--------------------------------------------------------------------|
   F|---8-8-----8-8--------8-8-----8-8--------8-8-----8-8----------------|
   C|-5-8-8-7-5-8-8-7-55-3-8-8-7-3-8-8-7-33-1-8-8-7-1-8-8-7-1-1-0--1--3--|
   G|-5-------5-------55-3-------3-------33-1-------1-------1-1-0---1--3-|
   C|-5-------5-------55-3-------3-------33-1-------1-------1-1-0-1--3---|


Important: The song above is NOT stored on the Chordie server. The original song is hosted at www.guitaretab.com. Chordie works as a search engine and provides on-the-fly formatting. Chordie does not index songs against artists/composers will. To remove this song please click here.

This song is displayed as text-only. Transposing and tuning is only available for chordpro-songs.

Login - add to songbook

Rating click stars to rate

Layout
Accuracy

SHARE PAGE  




You need to log in to post comments