Guitar Tabs, Chords and Lyrics


A Promise   Chicosci



     www.ultimate-guitar.com
Artist: chicosci
Title: A Promise
Date: Feb 2/2007
Tabber: gerome...(alias SUNEO)

x - DEAD STRING
h - HAMMER-ON
/ - SLIDE
. - PALM MUTING
~ - LET IT RING

              if you have a comment or questionÂ…..email nyo nlng me sa friendster!!!!!!
acc. gerome_scremo@yahoo.com/ gerome_shin@yahoo.com/ derwin@yahoo.com/
Â…if you need a txtm8  no. 09183157911  gurls only ok  no  bading!!1 hehe pakinggan nyo 
ung song...un qng hind kyo bingi hehehehe!!!! hi s  kbndm8 q cla dan,kenneth,luvly...sa 
tga cavite
rin


Gtr.Tuning: (Drop D)

Intro:
e|-----------------------------|
B|-----------------------------|
G|-5-9999999999----555555555---| (2x)
D|-x-xxxxxxxxxx--4/333333333---|
A|-3-7777777777--4/333333333---|
D|---------------4/333333333---|
   .

Verse:(Strum up and down stroke)
Now you are my beloved ghost....
Gtr.1:

e|----------------------------|
B|----------------------------|
G|--9999999999----555555555---|
D|--xxxxxxxxxx--4/333333333---|
A|--7777777777--4/333333333---|
D|--------------4/333333333---|

Gtr.2:
e|----------------------------|
B|----------------------------|
G|---------------5555555555---|
D|--555555555--4/3333333333---|
A|--333333333--4/3333333333---|
D|-------------4/3333333333---|


Chorus 1:
This wine,from my veins....
e|------------------|
B|------------------|
G|-----5~----4-5~---| (2x)
D|---5--------------|
A|------------------|
D|------------------|


Bass:
G|-------------------| (2x)
D|-------------------|
A|-------------------|
D|-7777777-3333333---|

Verse....

The sky is ours to keep tonight....

Repeat Chorus 1:
This wine,from my veins...

blood again...
e|-------------|
B|-------------|
G|-4h54h54h5---|
D|-------------|
A|-------------|
D|-------------|


Embrace the rest of me...
e|---------------------------|
B|---------------------------|
G|---------------------------| (4x)
D|--555555555---3333333333---|
A|--333333333---3333333333---|
D|--------------3333333333---|

Chorus 2:

I'm not alone....
Gtr.1:
e|---------------------|
B|---------------------|
G|---------------------| (2x)
D|-7777777--33333333---|
A|-7777777--33333333---|
D|-7777777--33333333---|


Gtr.2:

e|---------------------|
B|---------------------|
G|-9999999--55555555---| (2x)
D|-xxxxxxx--xxxxxxxx---|
A|-7777777--33333333---|
D|---------------------|


Bridge:

Denied another day....
e|---------------        ------------|
B|--------------- (2x)   ------------|
G|--------------- Then   ------------|
D|---------------        --3333333---|
A|---------------        --3333333---|
D|--7~--5~--3~---        --3333333---|
                         xxxxxxx

Repeat Verse:

Cause you are my beloved ghost...

Repeat Chorus 2:

I'm not alone....

Outro:

To see...
e|------------------|
B|------------------|
G|------------------|
D|-33333---333333---|
A|-33333---333333---|
D|-33333---333333---|

tapos na.......


A promise
Now you are my beloved ghost
And here i'll wait for you to sing
Then we will have eternity
A promise to keep haunting me

This wine
From my veins
These gifts
We'll take

The sky is ours to keep tonight
Together in this silent sleep
We are the mist that fills the air
Lie still, just be with me

This wine
From my veins
These gifts
We'll take
And i'll be
The kiss
The gun
We'll be draining their blood again

Embrace the rest of me
Well be racing through the night
Again, embrace the rest of me
And then we'll feast on them, celebrating

I'm not alone
I can feel your eyes on me

I'm not alone
Your soul for all the world to see

Denied another day
Life took you away
...i'll love you just the same

Cause you are my beloved ghost
And here i'll wait for you to sing
Then we will have eternity
A promise to keep haunting me
The sky is ours to keep tonight
Together in this silent sleep
We are the mist that fills the air
Lie still, just be with me

I'm not alone
I can feel your eyes on me
I'm not alone


Important: The song above is NOT stored on the Chordie server. The original song is hosted at www.guitaretab.com. Chordie works as a search engine and provides on-the-fly formatting. Chordie does not index songs against artists'/composers' will. To remove this song please click here.

This song is displayed as text-only. Transposing and tuning is only available for chordpro-songs.

Login - add to songbook

Rating click stars to rate

Layout
Accuracy

SHARE PAGE  




You need to log in to post comments