Chordie logo


Day Old Hate Live   City and Colour



-------------------------------------------------------------------------
		   Day Old Hate Live - City And Colour
-------------------------------------------------------------------------

Tabbed by: Kevin Fortier
Email: hey_man2000@hotmail.com
Tunning: Drop D (DADGBe)  --> tip: retune the top D once the capo is on.

            Capo 4

There are a lot of good tabs but some were concidered by many not
specific enough, this is a live version / tabbed improv.
It sounds nice, takes a little more practice but totaly worth it.
Timing is key on the intro and exact timing isn't written perfectly
on this tab. Carefull about the "intro lick", it's not quite a repeat.
Only the intro is "fully detailed", how the rest is played is up to you.
(Some picking instead of strumming sounds pretty nice)
The full chords are given but sometimes it's only the top 4 strings, or
bottom 3, etc.. Most of the time the 1st tring e is "muted".

*&* you don't need to hold down that note once it's played
+ : repeat fallowing note quickly
~ : let ring
/ : slide up
h : hammer on
p : pull-off
x : muted

  Intro
e|----0h2----2h3p2-2---0~-----5-3\2-------0~------------0---------0--|
B|--------0--0~------0-0~-----0~   -----0-3 p0--0-------0----------0-|
G|---------0-0---------0~-----0~   -------0~----0----0--0------------|
D|-0h2------------2-2--2-h4-4-4*&* ---2---2~---------4------4/5-4----|
A|---------------------0~-----0~   -0-3---3~---3-3+3+3-3-3+3---------|
D|---------------------0~-----0~   ----------------------------------|

e|----0h2----2h3p2-----0----0-5-3~-3p2p0-----0-0--0-----|
B|--------0~-0~---0----0----0-0~---0~-----0-33-3--3-3---|
G|-----------0---------0----0-0~--------0-0-00-0--0-0-0-|
D|-0h2-------------2--22-h4-4-4*&*------2-2--2-2-44-4-4-|
A|---------------------0----0-0~--------3----3---33-----|
D|---------------------0----0-0~------------------------|

  Verse 1
e|-0--0--0-0---0--0--0-0-0--0--0--0-0-0--0--0--0-0-0--0--0--0-0-0--|
B|-0--0--3-3---0--0--0-3-3--0--0--0-3-3--0--0--0-3-3--0--0--0-3-3--|
G|-0--0--0-0---0--0--0-0-0--0--0--0-0-0--0--0--0-0-0--0--0--0-0-0--|
D|-4--4--2-4---4--4--2-2-4--4--4--2-2-4--4--4--2-2-4--4--4--2-2-4--|
A|-2--0--3-3---2--0--3-3-3--2--0--3-3-3--2--0--3-3-3--2--0--3-3-3--|
D|-2--0--x-x---2--0--x-x-x--2--0--x-x-x--2--0--x-x-x--2--0--x-x-x--|

(So let's..)


  Chorus 1
e|-0 0-0 0-0 0--0-0-0--0 0-0-0-0 00-0-0-0--0 0-0~---0~--|
B|-0 0-0 0-0 0--0-3-3--0 0-0-0-0 00-0-3-3--0 0-0~---0~--|
G|-0 0-0 0-0 0--0-0-0--0 0-0-0-0 00-0-0-0--0 0-0~---0~--|
D|-2h4-2h4-2h4--2-2-4--2h4-2-4-2h42-2-2-4--2h4-4~---2~--|
A|-0 0-0 0-0 0--3-3-3--0 0-0-0-0 00-3-3-3--0 0-0~---3~--|
D|-0 0-0 0-0 0--x-x-x--0 0-0-0-0 00-x-x-x--0 0-0~---x---|
                                                    Dooown
(So drown me..)

e|---0~-------------------0---0--------0-|
B|---0~----------------0~-3---3-3/5\3~---|
G|---0~----------------0~-0---0----------|
D|---2h4---------------2~-2-2+4----------|
A|---0~----------------3~-3---3----------|
D|---0~----------------x--x---x----------|
                         picking
 But I found.. drift away


  Break
e|----0h2--2h3p2--2--------5-3\2~p0-----------0---------0-------------|
B|-------0-0~-------0----5-0~-------0---3~----3--3------3-------------|
G|---------0~--------0~----0~-------------00-000-0h4 p0-0--0~---------|
D|-0h2-----------2-2-2/4~--4*&*--------2--24-4-4-2------4--4/5/7~\5\4-|
A|-------------------0~----0~--------3-----3-3-3-3------3--2~---------|
D|-------------------------0~-----------------------------------------|

e|----0h2----2h3p2~---0~-----5-3\2p0---0-0-0---|
B|--------0--0~-------0~-----0~   -----0-3-3---|
G|---------0-0--------0~-----0~   -----0-0-0---|
D|-0h2--------------2+2-h4-4-4*&* -----2-2-4---|
A|--------------------0~-----0~   ---0-3-3-3---|
D|--------------------0~-----0~   -------------|


  Verse 2
e|-0--0--0-0-0--0--0--0-0-0--0--0--0-0-0--0~-0--0-0-0--|
B|-0--0--0-3-3--0--0--0-3-3--0--0--0-3-3--0~-0--0-3-3--|
G|-0--0--0-0-0--0--0--0-0-0--0--0--0-0-0--0~-0--0-0-0--|
D|-4--4--2-2-4--4--4--2-2-4--4--4--2-2-4--4~-4--2-2-4--|
A|-2--0--3-3-3--2--0--3-3-3--2--0--3-3-3--2~-0--3-3-3--|
D|-2--0--x-x-x--2--0--x-x-x--2--0--x-x-x--2~-0--x-x-x--|

 (Now you..)


  Chorus 2
e|-0 0-0 0-0 0--0-0-0--0 0-0---0-0-0--0 0-0~---0~-------|
B|-0 0-0 0-0 0--0-3-3--0 0-0---0-3-3--0 0-0~---0~--3~---|
G|-0 0-0 0-0 0--0-0-0--0 0-0---0-0-0--0 0-0~---0~-------|
D|-2h4-2h4-2h4--2-2-4--2h4-4---2-2-4--2h4-4~---2~----4~-|
A|-0 0-0 0-0 0--3-3-3--0 0-0---3-3-3--0 0-0~---3~-------|
D|-0 0-0 0-0 0--x-x-x--0 0-0---x-x-x--0 0-0~---x--------|
                                               Dooown
(So drown me..)

e|---0~------------------0-0--|
B|---0~---------------0~-3-3--|
G|---0~---------------0~-0-0--|
D|--42h4--------------2~-2-4--|
A|---0~---------------3~-3-3--|
D|---0~---------------x--x-x--|

 But I found.. drift away

  Break 2
e|-0--0--0-0-0--0--0--0-0-0--0--0--0-0-0--0--0--0-0-0--|
B|-0--0--0-3-3--0--0--0-3-3--0--0--0-3-3--0--0--0-3-3--|
G|-0--0--0-0-0--0--0--0-0-0--0--0--0-0-0--0--0--0-0-0--|
D|-4--4--2-2-4--4--4--2-2-4--4--4--2-2-4--4--4--2-2-4--|
A|-2--0--3-3-3--2--0--3-3-3--2--0--3-3-3--2--0--3-3-3--|
D|-2--0--x-x-x--2--0--x-x-x--2--0--x-x-x--2--0--x-x-x--|
                                          Soft    Hard
 (Do do dooo..)


   Outro
e|-0--0--0-0-0--0--0--0-0-0--0--0--0-0-0--0~-0~-0~~-|
B|-0--0--0-3-3--0--0--0-3-3--0--0--0-3-3--0~-0~-0~~-|
G|-0--0--0-0-0--0--0--0-0-0--0--0--0-0-0--0~-0~-0~~-|
D|-4--4--2-2-4--4--4--2-2-4--4--4--2-2-4--4~-4~-2~~-|
A|-2--0--3-3-3--2--0--3-3-3--2--0--3-3-3--2~-0~-3~~-|
D|-2--0--x-x-x--2--0--x-x-x--2--0--x-x-x--2~-0~-x---|

 (The things..)


Hope you enjoy! Any comments/questions email me.


  Lyrics

So let's face it, this was never what you wanted
But I know it's fun to pretend
Now blank stares and empty threats
Are all I have,
n they’re all I have

So drown me, n if you can
Or we could just have conversation
and I fall, I fall, I fall down
But I found you before I drift away

Now you still speak of day old hate
Though your whole world has gone up into flames
And isn’t it great to find that you’re really worth nothing
And how safe it is to feel safe

So drown me, n if you can
Or we could just have conversation
And I fall, I fall, I fall down
But I found you before I drift away, away

The things we do just to stay alive
The things we do just to stay alive
The things we do just to stay alive



Important: The song above is NOT stored on the Chordie server. The original song is hosted at www.guitaretab.com. Chordie works as a search engine and provides on-the-fly formatting. Chordie does not index songs against artists/composers will. To remove this song please click here.

This song is displayed as text-only. Transposing and tuning is only available for chordpro-songs.

Login - add to songbook

Rating click stars to rate

Layout
Accuracy

SHARE PAGE  




You need to log in to post comments