Guitar Tabs, Chords and Lyrics


The Crowing Acoustic   Coheed and Cambria



O.K. These are the TABS for The Crowing Acoustic I use them myself and people have told
thatthey sound perfect. So, here they are. For the video of this performance go to

http://youtube.com/watch?v=zOh5JqHXGF0

also please check out my acoustic solo project The Crimson Letter Chronicles at
www.myspace.com/heavens2betsy

Thanks so much,

oh and please let me know what you think of them. E-Mail me at
or my AIM SN is The Crowing Secret

Also keep in mind that this was from before the song was actually recorded for IKSSE3 so
lyrics are a tad different but i took the liberty of fixing them.

HAVE FUN! = ]

The Crowing Acoustic

  INTRO/PHASE I (I fed the clues...)
e|-----------------------------------------|
B|-----------------------------------------|
G|-----------------------------------------|
D|--5-5--5-5--5-5--5-5--4-4--4-4--4-4--4-4-|
A|--7-7--7-7--7-7--7-7--7-7--7-7--7-7--7-7-|
E|-----------------------------------------|


e|------------------------------|
B|------------------------------|
G|------------------------------|
D|-4-4--4-4--4-4--4-4--5-5--5-5-|
A|-5-5--5-5--5-5--5-5--3-3--3-3-|
E|------------------------------|

e|-----------------------|
B|-----------------------|
G|-----------------------|
D|-----------------------|
A|--3-2-0------5---------|
E|---------3-2-----------|

  PHASE II  (But you, you were...)
e|----------------------------------------------|
B|----------------------------------------------|
G|--------0--------0----------0-4b-0-----0-4b-0-|
D|------4--------4----------5----------5--------|
A|----2--------2-----5----3----------3----------|
E|--0--------0----------------------------------|


 PHASE III  (And I walk through the...)
e|-----------------------------------------------|
B|-----------------------------------------------|
G|-----------------------------------------------|
D|-----------------------------------------------|
A|-10-10-10-10--(X3)--12--12--12--12--(X3)-------|
E|-8--8--8--8---------10--10--10--10-------------|

   PHASE IV
e|----------------------------------------|
B|----------------------------------------|
G|----------------------------------------|
D|----------------------------------------|
A|-14-14-14-14--14-14-14-15--14-14-17-14--|
E|-12-12-12-12--12-12-12-12--12-12-12-12--|

e|----------------------------------------|
B|----------------------------------------|
G|----------------------------------------|
D|----------------------------------------|
A|-12-12-12-12--12-12-12-14--12-12-15-12--|
E|-10-10-10-10--10-10-10-10--10-10-10-10--|

   (Pray you're not...)
e|------------------------------------------|
B|------------------------------------------|
G|------------------------------------------|
D|-----------9-9-9-------7-7-7-5-5-5-4-4-4--|
A|--10-10-10-7-7-7-7-7-7-5-5-5-3-3-3-2-2-2--|
E|--8--8--8--------5-5-5--------------------|

  PHASE V
e|---------------------------------------------|
B|---------------------------------1--------3--|
G|---------------------------0-2h3------2h3--3-|
D|----------------------0-2h3--------2h3-------|
A|-2-2-2-2-(X16)-0-2h3-------------------------|
E|-0-0-0-0-------------------------------------|

  PHASE V pt.2
e|--------------------------------|
B|-------------------1p0-1p0-1h3--|
G|----------------------2---2-----|
D|-44-44-44-44-44-44--------------|
A|-22-00-22-00-22-00--------------|
E|--------------------------------|

e|----------------------------|
B|----------------------------|
G|----------------------------|
D|-44-44-------7*--44-44------|
A|-22-00-(x7)------22-00-(X4)-|
E|----------------------------|

  PHASE VI (But would they be...)
e|---------------------|
B|---------------------|
G|---------------------|
D|------7-----11-------|
A|----5-----9----------|
E|--3-----7------------|

  PHASE VI pt.2 (For You,...)
e|---------------|
B|---------------|
G|---------------|
D|-------12-(2x)-|
A|----10---------|
E|--8------------|


  PHASE VII (Did you ever really...)
e|-----------------------------------|
B|-----------------------------------|
G|-----------------------------------|
D|-----------------------------------|
A|--9-9-9-9-9-9-9-9-9-9-9-9-9-9-9-9--|
E|--7-7-0-0-7-7-0-0-7-7-0-0-7-7-0-0--|


e|-----------------------------------|
B|-----------------------------------|
G|-----------------------------------|
D|-----------------------------------|
A|--5-5-5-5-5-5-5-5-5-5-5-5-5-5-5-5--|
E|--3-3-0-0-3-3-0-0-3-3-0-0-3-3-0-0--|

  PHASE VIII (Dear Ambelina...)
e|----------------------------------------------|
B|----------------------------------------------|
G|----------7-----------------------------------|
D|--4-------7-(16x)-7---------------4-4-2-2-----|
A|--4-(16x)-5-------7-(16x)--2-(8x)-2-2-0-0--0-0|


Important: The song above is NOT stored on the Chordie server. The original song is hosted at www.guitaretab.com. Chordie works as a search engine and provides on-the-fly formatting. Chordie does not index songs against artists'/composers' will. To remove this song please click here.

This song is displayed as text-only. Transposing and tuning is only available for chordpro-songs.

Login - add to songbook

Rating click stars to rate

Layout
Accuracy

SHARE PAGE  




You need to log in to post comments