Paint It Golden

Colbie Caillat

 Cadd9G/BGD/FEm7
e--0--------3--------3--------2--------0-|
b--3--------3--------3--------3--------3-|
g--0--------0--------0--------0--------0-|
d--2--------0--------0--------0--------2-|
a--3--------2--------2--------0--------2-|
E--0--------x--------3--------2--------0-|


Intro/Verse Riff:

 CG/BCG/B
e---------------------------------------------------------|
b-----3--------------3----3------------3-------3----3-----|
g----0--0---0------0-0h2-p0-------0---------0--0h2-p0-----|
d---2----0h2------0-----------0--2----2-------0------2/4--|
a-3-------------2--------------3----3--------2------------|
E---------------------------------------------------------|


 CG/B
e------------------3-3-2----0----------|
b-------3-1h0------------3----3--------|
g----0--------------------0----0-------|
d---2-2----------0---------------------|
a-3-------------2----------------2-2h3-|
E--------------------------------------|


Use the 2h3 to lead into the first set of riffs again.
The riffs can be used throughough the verses and 'solo', and improvised on if you want.

 CG/BC
  Run away from money 
 G/BC
Quit your job and climb a tree
 G/BCG/BC
One with hearts instead of leaves    
 G/BCG/BC
Build a sandcastle big enough for us to sleep
 G/BCG/B
Paint it golden with the sunrise

Chorus:

 GD/F#
Cause we are  
 Em7C
Like a wingless bird
 GD/F#
Crashing down  
 Em7C
To the helpless earth
 G
And if somethin's gonna break it
 D/F#
 See it all around you
 Em7C
 Feel it in your body
 G
You'll be hiding in the shadows
 D/F#
Where love is still alive
 Em7C
'Til all of it is burning

Through a field we're walkin
Empty as the open sky
We escape from all the troubles
Found a waterfall and
Took a dive to cool our skin
Finally we found this feelin'

Chorus

'Solo'

Run away from money
Quit your job and climb a tree
One with hearts instead of leaves

End on Em7


C Cadd9 D/F D/F# Em7 G G/B
variations - click chord images
Transpose chords:
Tuning:
Cool service:
View: Size:
A  A  A
Rating:
Layout:
  • Currently 2/5 Stars.
  • 1
  • 2
  • 3
  • 4
  • 5
 
Accuracy:
  • Currently 2.6/5 Stars.
  • 1
  • 2
  • 3
  • 4
  • 5
 
click stars to rate
Chordie recommends:
Check out JamPlay.com for online video guitar lessons
Songbook:
Login to add this song to your songbook
Support the artist
Preview/buy this song
MSN Music
Why this non-profit ad?

 
login to add comments/video/corrections