Guitar Tabs, Chords and Lyrics


Bleed Live Acoustic   Cold


e|------------------------------|------------------------------|
h|----0-0-0-7-7--7-7--7-7-7-7-0-|-0--0-0-0-5-5--5-5--5-5-5-5-5-|
g|-0--0-0-0-0-0--0-0--0-0-0-0-0-|-0--0-0-0-0-0--0-0--0-0-0-0-0-|
D|-0--5-5-5-5-5--5-5--5-5-5-5-0-|-5--5-5-5-5-5--5-5--5-5-5-5-5-|
A|-5/-7-7-7-7-7--7-7--7-7-7-7---|-5--5-5-5-5-5--5-5--5-5-5-5-5-|
E|------------------------------|------------------------------|





                                    


           ... Take it inside





   [d]   [d]  [u]  [d]  [u]  [d]   [d]  [u]   [u]  [d]  [u]  [d]  [u]    [d]   [d]  [u]  [d]  [u]  [d]   [d]  [u]   [u]  [d]  [u]  [d]  [u]         


e|------------------------------|------------------------------|
h|-5--5-5-5-5-5--5-5--5-5-5-5-5-|-5--5-5-5-5-5--5-5--0-0-0-0-0-|
g|-0--0-0-0-0-0--0-0--0-0-0-0-0-|-0--0-0-0-0-0--0-0--0-0-0-0-0-|
D|-5--5-5-5-5-5--5-5--5-5-5-5-5-|-5--5-5-5-5-5--5-5--0-0-0-0-0-|
A|-4--4-4-4-4-4--4-4--4-4-4-4-4-|-3--3-3-3-3-3--3-3--5-5-5-5-5-|
E|------------------------------|------------------------------| 





                     ^                              ^


                     you might wanna vary this when playing


                     by filling in some of these gaps and


                     altering the strumming pattern here and


                     there.








you're getting the idea...








CHORUS








              ...I wanna bleed              ...show the world





   [d]   [d]  [u]  [d]  [u]  [d]   [d]  [u]  [d]  [u]  [d]   [d]  [u]    [d]  [d] [u] [d] [u] [d] [d] [u] [d] [u] [d] [d] [u] 


                                                                     


e|-3--3-3-3-3-3--3-3-3-3-3--3-3-|-3--3-3-3-3-3--3-3-3-3-3--3-3-|
h|-3--3-3-3-3-3--3-3-3-3-3--3-3-|-3--3-3-3-3-3--3-3-3-3-3--3-3-|
g|-0--0-0-0-0-0--0-0-0-0-0--0-0-|-0--0-0-0-0-0--0-0-0-0-0--0-0-|
D|-0--0-0-0-0-0--0-0-0-0-0--0-0-|-0--0-0-0-0-0--0-0-0-0-0--0-0-|
A|-x--x-x-x-x-x--x-x-x-x-x--x-x-|-x--x-x-x-x-x--x-x-x-x-x--x-x-|
E|-3--3-3-3-3-3--3-3-3-3-3--3-3-|-2--2-2-2-2-2--2-2-2-2-2--2-2-|











   ...all ... that  ... I      ...have inside





                                                                     


e|-3--3-3-3-3-3--3-3-3-3-3--3-3-|-3--3-3-3-3-3--3-3-3-3-3--3-3-|
h|-3--3-3-3-3-3--3-3-3-3-3--3-3-|-3--3-3-3-3-3--3-3-3-3-3--3-3-|
g|-0--0-0-0-0-0--0-0-0-0-0--0-0-|-0--0-0-0-0-0--0-0-0-0-0--0-0-|
d|-0--0-0-0-0-0--0-0-0-0-0--0-0-|-0--0-0-0-0-0--0-0-0-0-0--0-0-|
a|-3--3-3-3-3-3--3-3-3-3-3--3-3-|-2--2-2-2-2-2--2-2-2-2-2--2-2-|
e|------------------------------|------------------------------|











end of chorus: only before the verse !





...me alive





   [d]   [d]  [u]  [d]  [u]  [d]   [d]  [u]  [d]  [u]  [d]  [u]  [d]  [u]      


                                                                     


e|-3--3-3-3-3-3--3---------------|
h|-3--3-3-3-3-3--3-0-0-0-0-0-0-0-|
g|-0--0-0-0-0-0--0-0-0-0-0-0-0-0-|
d|-0--0-0-0-0-0--0---0-0-0-0-0-0-|
a|-2--2-2-2-2-2--2---5-5-5-5-5-5-| ---> slide back into the verse
e|-------------------------------| 











BRIDGE





wont you





...let  me  ...  take you      ...for a ride     ... you can





   [d]   [d]  [u]  [d]  [u]  [d]   [d]  [u]  [d]  [u]  [d]   [d]  [u]    [d]  [d] [u] [d] [u] [d] [d] [u] [d] [u] [d] [d] [u] 


                                                                    


e|-3--3-3-3-3-3--3-3-3-3-3--3-3-|-3--3-3-3-3-3--3-3-3-3-3--3-3-|
h|-3--3-3-3-3-3--3-3-3-3-3--3-3-|-3--3-3-3-3-3--3-3-3-3-3--3-3-|
g|-0--0-0-0-0-0--0-0-0-0-0--0-0-|-0--0-0-0-0-0--0-0-0-0-0--0-0-|
D|-0--0-0-0-0-0--0-0-0-0-0--0-0-|-0--0-0-0-0-0--0-0-0-0-0--0-0-|
A|-x--x-x-x-x-x--x-x-x-x-x--x-x-|-x--x-x-x-x-x--x-x-x-x-x--x-x-|
E|-3--3-3-3-3-3--3-3-3-3-3--3-3-|-2--2-2-2-2-2--2-2-2-2-2--2-2-|











...stop the world    ...try to ...change my mind  ...wont you





                                                                    


e|-3--3-3-3-3-3--3-3-3-3-3--3-3-|-3--3-3-3-3-3--3-3-3-3-3--3-3-|
h|-3--3-3-3-3-3--3-3-3-3-3--3-3-|-3--3-3-3-3-3--3-3-3-3-3--3-3-|
g|-0--0-0-0-0-0--0-0-0-0-0--0-0-|-0--0-0-0-0-0--0-0-0-0-0--0-0-|
d|-0--0-0-0-0-0--0-0-0-0-0--0-0-|-0--0-0-0-0-0--0-0-0-0-0--0-0-|
a|-3--3-3-3-3-3--3-3-3-3-3--3-3-|-2--2-2-2-2-2--2-2-2-2-2--2-2-|
e|------------------------------|------------------------------|











END:





                                                                    


e|-3--3-3-3-3-3--3-3-3-3-3--3-3-|-3--3-3-3-3-3--3-3-3-3-3--3-3-|
h|-3--3-3-3-3-3--3-3-3-3-3--3-3-|-3--3-3-3-3-3--3-3-3-3-3--3-3-|
g|-0--0-0-0-0-0--0-0-0-0-0--0-0-|-0--0-0-0-0-0--0-0-0-0-0--0-0-|
d|-0--0-0-0-0-0--0-0-0-0-0--0-0-|-0--0-0-0-0-0--0-0-0-0-0--0-0-|
a|-3--3-3-3-3-3--3-3-3-3-3--3-3-|-2--2-2-2-2-2--2-2-2-2-2--2-2-|
e|------------------------------|------------------------------|
e|------3-----------------|
h|-----3------arpeggiate--|
g|----0-------------------|
d|---0--------------------|
a|--x---------------------|
e|-3----------------------|



Important: The song above is NOT stored on the Chordie server. The original song is hosted at www.guitaretab.com. Chordie works as a search engine and provides on-the-fly formatting. Chordie does not index songs against artists'/composers' will. To remove this song please click here.

This song is displayed as text-only. Transposing and tuning is only available for chordpro-songs.

Login - add to songbook

Rating click stars to rate

Layout
Accuracy

SHARE PAGE  




You need to log in to post comments