Guitar Tabs, Chords and Lyrics


po  Corey Smith

-----------------------------------------------------------------------------



-----------------------------------------------------------------------------

e|------------------------------------------------------------------------|
B|------------------------------------------------------------------------|
G|---0h2-2-0-2-----0-------0---------------0h2-2-0-2----0------0----------|
D|-0-----------------------------------0-0--------------------------------|
A|---------------2-----0h2---------0h2----------------2----0h2--------0h2-|
E|-----------------------------3-3--------------------------------3-3-----|
e|---------------------|
B|---------------------|
G|---------------------|
D|---7----5----7----5--|
A|---7----5----7----5--|
E|---5----3----5----3--|
e|------------------------------------------------------------------|
B|------------------------------------------------------------------|
G|---7-------------------7------------------------------------------|
D|---7----7----5----7----7----7----5----7----5----7-----------------|
A|---5----7----5----7----5----7----5----7----5----7-----------------|
E|--------5----3----5---------5----3----5----3----5-----------------|
e|------------------------------------------------------------------------|
B|------------------------------------------------------------------------|
G|---0h2-2-0-2-----0-------0---------------0h2-2-0-2----0------0----------|
D|-0-----------------------------------0-0--------------------------------|
A|---------------2-----0h2---------0h2----------------2----0h2--------0h2-|
E|-----------------------------3-3--------------------------------3-3-----|
     [D]     [A]     [G]     [A]     [D]     [A]     [G]     [A]     [G]     [A]                                             
e|------------------------------------------------------------------|
B|------------------------------------------------------------------|
G|---7-------------------7------------------------------------------|
D|---7----7----5----7----7----7----5----7----5----7-----------------|
A|---5----7----5----7----5----7----5----7----5----7-----------------|
E|--------5----3----5---------5----3----5----3----5-----------------|

"And I was mad as hell thinkin' fuck the po-po..."

Outro (Intro/Verse)

e|------------------------------------------------------------------------|
B|------------------------------------------------------------------------|
G|---0h2-2-0-2-----0-------0---------------0h2-2-0-2----0------0----------|
D|-0-----------------------------------0-0--------------------------------|
A|---------------2-----0h2---------0h2----------------2----0h2--------0h2-|
E|-----------------------------3-3--------------------------------3-3-----|


| / slide up
| \ slide down
| h hammer-on
| p pull-off
| ~ vibrato
| + harmonic
| x Mute note
=============================================================================

Important: The song above is NOT stored on the Chordie server. The original song is hosted at www.guitaretab.com. Chordie works as a search engine and provides on-the-fly formatting. Chordie does not index songs against artists'/composers' will. To remove this song please click here.

Text color:
Chord color:
Chord grids: 
Font size:    
Page size: 

A D G
variations - click chord images

Login - add to songbook

Transpose chords

Tuning

Rating click stars to rate

Layout
Accuracy

SHARE PAGE  




You need to log in to post comments