Guitar Tabs, Chords and Lyrics


one   Corey Smith



-------------------------------------------------------------------------------
			     SONG NAME - Band Name
-------------------------------------------------------------------------------
Tabbed by: Thom
Email: thompowers3@yahoo.com

Tuning: eBGDAE

Part A

e|-----0h2p0------0---------2---------------------------3-----------0--------|
B|------------------3---------3------3-2-------0----------0-----0h3-------2-3|
G|-----------------------------------------------0---------------------------|
D|--0------------------------------------------------------------------------|
A|------------4---------2---------0------------------------------------0-----|
E|-----------------------------------------3--------2--------0---------------|

Part B

e|-----0h2p0------0---------2------------------------------------------------|
B|------------------3---------3------3-2-------0-------------------2h3-------|
G|-----------------------------------------------0---------0-----2-----------|
D|--0----------------------------------------------------0-----2-------------|
A|------------4---------2---------0------------------0h2-----0---------------|
E|-----------------------------------------3---------------------------------|

Part C

e|-------------------------------|
B|------3------------------------|
G|----2--------0-----0-----0-----|
D|--0--------0-----0-----0-------|
A|---------4-----2-----0---------|
E|-------------------------------|

Part D

e|-------------------------------|
B|-------------------------------|
G|------0------0------0------0---|
D|----0------0------0------0-----|
A|-----------------------0-------|
E|--3------2------0--------------|

Part E

e|-----------------------------------0h2-------------------------------------|
B|-----------------------------------3-------------3-------------------------|
G|------0------0------0------0-------------------0---0-----------------------|
D|----0------0------0------0-------------------------------------------------|
A|-----------------------0--------0--------0---------------------------------|
E|--3------2------0--------------------------3-------------------------------|

Part F

e|-----------------------3p2-------------------------------------------------|
B|--------------------3--3---------------------------------------------------|
G|--4--2-----------2--2--2-----4--2--------------------2h3--2--2-------------|
D|--4--2--5--4--2--2--0--0-----4--2--5--4--2--2------2-----------------------|
A|--2--0--5--4--2--0-----------2--0--5--4--2--2----2-------------------------|
E|--------3--2--0--------------------3--2--0--0--0---------------------------|

Play Order:
A, B, C, D, E, B, C, D, E, B, F, D, E, A, B, C, D, E, B


| /  slide up
| \  slide down
| h  hammer-on
| p  pull-off
| ~  vibrato
| +  harmonic
| x  Mute note
===============================================================================


Important: The song above is NOT stored on the Chordie server. The original song is hosted at www.guitaretab.com. Chordie works as a search engine and provides on-the-fly formatting. Chordie does not index songs against artists'/composers' will. To remove this song please click here.

This song is displayed as text-only. Transposing and tuning is only available for chordpro-songs.

Login - add to songbook

Rating click stars to rate

Layout
Accuracy

SHARE PAGE  




You need to log in to post comments