Guitar Tabs, Chords and Lyrics


Cherokee Rose   Corey Smith



-------------------------------------------------------------------------------
			     CHEROKEE ROSE - Corey Smith
-------------------------------------------------------------------------------
Tabbed by: Jayrod

Tuning: Standard

Intro
e|--------1p0-----------------0h1-------------------0-------1p0---------------------------|
B|--------------3---------3-----------------------------1---------1h3---3p1---------------|
G|------------------0h2-------------0-------0---------------------------------2-----------|
D|----0---------------------------------0-----------------------------------------0h2-----|
A|----------------------------------------------3-----------------------------------------|
E|----------------------------------------------------------------------------------------|

e|-------1p0-----------------0h1------------------------3------|
B|-------------3---------3-------------------------3----3------|
G|-----------------0h2-------------0-------0------------0------|
D|---0---------------------------------0----------------0------|
A|------------------------------------------------------x------|
E|---------------------------------------------3--------3------|

Verses (Chords from the intro. Ad lib in a Corey way)
e|----1----0----1----3-----|
B|----3----1----3----3-----|
G|----2----0----2----0-----|
D|----0----2----0----0-----|
A|---------3---------x-----|
E|-------------------3-----|

Prechorus
e|----1----3----|
B|----1----3----|
G|----x----0----|
D|----3----0----|
A|----3----x----|
E|----1----3----|

Chorus
e|----5----3----5----3-----|
B|----3----1----3----3-----|
G|----2----0----2----0-----|
D|----0----2----0----0-----|
A|---------3---------x-----|
E|-------------------3-----|

Bridge
e|----1----0----3----1----0----3----1----1----0----3----1----3----1----0----1----3-----|
B|----3----1----3----3----1----3----3----3----1----3----1----3----3----1----3----3-----|
G|----2----0----0----2----0----0----2----2----0----0----x----0----2----0----2----0-----|
D|----0----2----0----0----2----0----0----0----2----0----3----0----0----2----0----0-----|
A|---------3----x---------3----x--------------3----x----3----x---------3---------x-----|
E|--------------3--------------3-------------------3----1----3-------------------3-----|


| h  hammer-on
| p  pull-off
| x  Mute note


Important: The song above is NOT stored on the Chordie server. The original song is hosted at www.guitaretab.com. Chordie works as a search engine and provides on-the-fly formatting. Chordie does not index songs against artists'/composers' will. To remove this song please click here.

This song is displayed as text-only. Transposing and tuning is only available for chordpro-songs.

Login - add to songbook

Rating click stars to rate

Layout
Accuracy

SHARE PAGE  




You need to log in to post comments