Guitar Tabs, Chords and Lyrics


No One Really Knows  Larry Coryell

----------7-9--/11-9-7-5---------/9-7-5-7-4\2 ----|9/11-11-11-11-979/11|


-------/9-----9-|--------8-7^5---|----------------|----------------|


----------------|----------------|----------------|----------------|


----------------|----------------|----------------|----------------|


----------------|----------------|----------------|----------------|


----------------|----------------|----------------|----------------|

[Db7]                [Bbm]                 [Cm/Ab]                 [Fm]                                                                                                        
9-9^11\7--9--999|\6-6--------4-6-|8-6-4-------(4)\|1-1-1-1-1^2^1-1-|
----------------|----------------|----------------|------------^4--|
----------------|----------------|----------------|----------------|
----------------|----------------|----------------|----------------|
----------------|----------------|----------------|----------------|
----------------|----------------|----------------|----------------| 

(Eb) (Bbm) (Eb7)AbMa7? (Bbm)
4---4^6-4-------|----------------|----------------|---4------------|
----------------|----------------|4---4-----------|----------------|
-------------0^1/3-3-3-3-3-3-3-3-|------5------0^1/3-3-3-3-3-3-3-3-|
----------------|----------------|----------------|----------------|
----------------|----------------|----------------|----------------|
----------------|----------------|----------------|----------------|

(AbMa7 Fm Gb Eb7??)
[Fm]                [Bbm]         [Ab]        [F]       [Eb]          [Ebm7]         [Db9]        [Bbm7]                                                                                       
-----4----------/6-6-6-6-6-6---6-|6/8-6-4-6-------|----------------|----------------|
/6-----6-------4|------------9---|---------646-4-6|4---4/6---2---4-|----------------|
----------------|----------------|8-108-6-8---5---|----------------|3-3-1-3---------|
----------------|----------------|----------------|----------------|----------------|
----------------|----------------|----------------|----------------|----------------|
----------------|----------------|----------------|----------------|----------------|

Hope somebody enjoys this one. Hope somebody knows it. it's a great song.
Lyrics:
[Eb9]No one really knows [Db7#9]why they hate themselves
[Eb9]but it's all a simple matter, [Db7#9]locked in your skulls
[Bbm7]if you can't think about [Cm/Ab]holy things
[Fm]things will make you more and more [Eb]miserable
[Bbm]find out how to know everl[Eb7/AbMa7]asting love
[Bbm]get it in your head and don't [Fm]let it go
Bbm Ab Fm Ebm7 AbMa7? Db9?
opening up the gates to insanity and humanity, all the time
will s[Bbm7]izzle your brain....

Important: The song above is NOT stored on the Chordie server. The original song is hosted at www.guitaretab.com. Chordie works as a search engine and provides on-the-fly formatting. Chordie does not index songs against artists'/composers' will. To remove this song please click here.

Text color:
Chord color:
Chord grids: 
Font size:    
Page size: 

Ab Bbm Bbm7 Cm/Ab Db7 Db7#9 Db9 Eb Eb9 Ebm7 F Fm
variations - click chord images

Login - add to songbook

Transpose chords

Tuning

Rating click stars to rate

Layout
Accuracy

SHARE PAGE  




You need to log in to post comments