Chordie logo

Not So Sweet Martha Lorraine   Country Joe and The Fish



                                       Not So Sweet Martha Lorraine - Country Joe and Fish

Tabbed by:The Chuck
Email:
Tuning:Standard
Info: If You Listen To The Song You'll Get It

                                  Intro

e|---------------------------------------------------------------------------|
B|---------------------------------------------------------------------------|
G|---------------------------------------------------------------------------|
D|------9----9----9-9-11-9-11-9----9-----7---7---7-7-9-7-9-7---7----x2-------|
A|-9/11---11---11---------------11---6/9---9---9-------------9---------------|
E|---------------------------------------------------------------------------|

                                    Verse

e|---------------------------------------------------------------------------|
B|---------------------------------------------------------------------------|
G|---------------------------------------------------------------------------|
D|-9-9----7-5------9-9---7-5-----until-"going-that-its-hard-to-find"---------|
A|-7-7-------------7-7-------9-----------------------------------------------|
E|---------------------------------------------------------------------------|

                            going that its hard to find

e|---------------------------------------------------------------------------|
B|---------------------------------------------------------------------------|
G|---------------------------------------------------------------------------|
D|---------------------Play-Intro--------------------------------------------|
A|---------------------------------------------------------------------------|
E|---------------------------------------------------------------------------|

                                   Chorus

e|---------------------------------------------------------------------------|
B|---------------------------------------------------------------------------|
G|---9-9-7-9---9-9-7-9----7-7-5-7---7-7-5-7---9-9-7-9------------------------|
D|---7-7-5-7---7-7-5-7----5-5-3-5---5-5-3-5---7-7-5-7------------------------|
A|-7---------7----------5---------5---------7--------------------------------|
E|---------------------------------------------------------------------------|

                    I'll Have The Lead Up As Soon As I Can


| /  slide up
| \  slide down
| h  hammer-on
| p  pull-off
| ~  vibrato
| +  harmonic
| x  Mute note


Important: The song above is NOT stored on the Chordie server. The original song is hosted at www.guitaretab.com. Chordie works as a search engine and provides on-the-fly formatting. Chordie does not index songs against artists/composers will. To remove this song please click here.

This song is displayed as text-only. Transposing and tuning is only available for chordpro-songs.

Login - add to songbook

Rating click stars to rate

Layout
Accuracy

SHARE PAGE  



You need to log in to post comments